  0
SECTION
  2
HEADER
  9
$ACADVER
  1
AC1009
  9
$DWGCODEPAGE
  3
ansi_932
  9
$INSBASE
 10
0.0
 20
0.0
 30
0.0
  9
$EXTMIN
 10
-836.531429682114
 20
-570.0
 30
0.0
  9
$EXTMAX
 10
825.468570317886
 20
570.0
 30
0.0
  9
$LIMMIN
 10
-297.25
 20
-210.25
  9
$LIMMAX
 10
297.25
 20
210.25
  9
$ORTHOMODE
 70
     0
  9
$REGENMODE
 70
     1
  9
$FILLMODE
 70
     1
  9
$QTEXTMODE
 70
     0
  9
$MIRRTEXT
 70
     1
  9
$DRAGMODE
 70
     2
  9
$LTSCALE
 40
0.5
  9
$OSMODE
 70
    37
  9
$ATTMODE
 70
     1
  9
$TEXTSIZE
 40
0.2
  9
$TRACEWID
 40
0.05
  9
$TEXTSTYLE
  7
STANDARD
  9
$CLAYER
  8
0
  9
$CELTYPE
  6
BYLAYER
  9
$CECOLOR
 62
   256
  9
$DIMSCALE
 40
1.0
  9
$DIMASZ
 40
1.25
  9
$DIMEXO
 40
0.0625
  9
$DIMDLI
 40
0.38
  9
$DIMRND
 40
0.0
  9
$DIMDLE
 40
0.0
  9
$DIMEXE
 40
0.18
  9
$DIMTP
 40
0.0
  9
$DIMTM
 40
0.0
  9
$DIMTXT
 40
0.18
  9
$DIMCEN
 40
0.09
  9
$DIMTSZ
 40
0.0
  9
$DIMTOL
 70
     0
  9
$DIMLIM
 70
     0
  9
$DIMTIH
 70
     1
  9
$DIMTOH
 70
     1
  9
$DIMSE1
 70
     0
  9
$DIMSE2
 70
     0
  9
$DIMTAD
 70
     3
  9
$DIMZIN
 70
     0
  9
$DIMBLK
  1

  9
$DIMASO
 70
     1
  9
$DIMSHO
 70
     1
  9
$DIMPOST
  1

  9
$DIMAPOST
  1

  9
$DIMALT
 70
     0
  9
$DIMALTD
 70
     2
  9
$DIMALTF
 40
25.4
  9
$DIMLFAC
 40
1.0
  9
$DIMTOFL
 70
     0
  9
$DIMTVP
 40
0.0
  9
$DIMTIX
 70
     0
  9
$DIMSOXD
 70
     0
  9
$DIMSAH
 70
     0
  9
$DIMBLK1
  1

  9
$DIMBLK2
  1

  9
$DIMSTYLE
  2
STANDARD
  9
$DIMCLRD
 70
     0
  9
$DIMCLRE
 70
     0
  9
$DIMCLRT
 70
     0
  9
$DIMTFAC
 40
1.0
  9
$DIMGAP
 40
0.09
  9
$LUNITS
 70
     2
  9
$LUPREC
 70
     4
  9
$SKETCHINC
 40
0.1
  9
$FILLETRAD
 40
0.5
  9
$AUNITS
 70
     0
  9
$AUPREC
 70
     0
  9
$MENU
  1
.
  9
$ELEVATION
 40
0.0
  9
$PELEVATION
 40
0.0
  9
$THICKNESS
 40
0.0
  9
$LIMCHECK
 70
     0
  9
$CHAMFERA
 40
0.5
  9
$CHAMFERB
 40
0.5
  9
$SKPOLY
 70
     0
  9
$TDCREATE
 40
2456329.582004549
  9
$TDUPDATE
 40
2456329.58200456
  9
$TDINDWG
 40
0.0000000116
  9
$TDUSRTIMER
 40
0.0000000116
  9
$USRTIMER
 70
     1
  9
$ANGBASE
 50
0.0
  9
$ANGDIR
 70
     0
  9
$PDMODE
 70
     0
  9
$PDSIZE
 40
1.0
  9
$PLINEWID
 40
0.0
  9
$COORDS
 70
     1
  9
$SPLFRAME
 70
     0
  9
$SPLINETYPE
 70
     6
  9
$SPLINESEGS
 70
     8
  9
$ATTDIA
 70
     0
  9
$ATTREQ
 70
     1
  9
$HANDLING
 70
     1
  9
$HANDSEED
  5
569
  9
$SURFTAB1
 70
     6
  9
$SURFTAB2
 70
     6
  9
$SURFTYPE
 70
     6
  9
$SURFU
 70
     6
  9
$SURFV
 70
     6
  9
$UCSNAME
  2

  9
$UCSORG
 10
0.0
 20
0.0
 30
0.0
  9
$UCSXDIR
 10
1.0
 20
0.0
 30
0.0
  9
$UCSYDIR
 10
0.0
 20
1.0
 30
0.0
  9
$PUCSNAME
  2

  9
$PUCSORG
 10
0.0
 20
0.0
 30
0.0
  9
$PUCSXDIR
 10
1.0
 20
0.0
 30
0.0
  9
$PUCSYDIR
 10
0.0
 20
1.0
 30
0.0
  9
$USERI1
 70
     0
  9
$USERI2
 70
     0
  9
$USERI3
 70
     0
  9
$USERI4
 70
     0
  9
$USERI5
 70
     0
  9
$USERR1
 40
0.0
  9
$USERR2
 40
0.0
  9
$USERR3
 40
0.0
  9
$USERR4
 40
0.0
  9
$USERR5
 40
0.0
  9
$WORLDVIEW
 70
     1
  9
$SHADEDGE
 70
     3
  9
$SHADEDIF
 70
    70
  9
$TILEMODE
 70
     1
  9
$MAXACTVP
 70
    64
  9
$PLIMCHECK
 70
     0
  9
$PEXTMIN
 10
1.000000000000000E+20
 20
1.000000000000000E+20
 30
1.000000000000000E+20
  9
$PEXTMAX
 10
-1.000000000000000E+20
 20
-1.000000000000000E+20
 30
-1.000000000000000E+20
  9
$PLIMMIN
 10
0.0
 20
0.0
  9
$PLIMMAX
 10
12.0
 20
9.0
  9
$UNITMODE
 70
     0
  9
$VISRETAIN
 70
     0
  9
$PLINEGEN
 70
     1
  9
$PSLTSCALE
 70
     0
  0
ENDSEC
  0
SECTION
  2
TABLES
  0
TABLE
  2
VPORT
 70
     1
  0
VPORT
  2
*ACTIVE
 70
     0
 10
0.0
 20
0.0
 11
1.0
 21
1.0
 12
0.0
 22
0.0
 13
0.0
 23
0.0
 14
0.5
 24
0.5
 15
0.5
 25
0.5
 16
0.0
 26
0.0
 36
1.0
 17
-5.531429682113984
 27
0.0
 37
0.0
 40
387.6
 41
1.457894736842105
 42
50.0
 43
0.0
 44
0.0
 50
0.0
 51
0.0
 71
     0
 72
  1000
 73
     1
 74
     1
 75
     0
 76
     0
 77
     0
 78
     0
  0
ENDTAB
  0
TABLE
  2
LTYPE
 70
    28
  0
LTYPE
  2
CONTINUOUS
 70
     0
  3
Solid line
 72
    65
 73
     0
 40
0.0
  0
LTYPE
  2
HIDDENX2
 70
     0
  3
CADPAC LINETYPE
 72
    65
 73
     2
 40
21.74212931404486
 49
16.30659698553365
 49
-5.435532328511215
  0
LTYPE
  2
HIDDEN
 70
     0
  3
CADPAC LINETYPE
 72
    65
 73
     2
 40
16.30659698553365
 49
10.87106465702243
 49
-5.435532328511215
  0
LTYPE
  2
HIDDEN2
 70
     0
  3
CADPAC LINETYPE
 72
    65
 73
     2
 40
13.58883082127804
 49
8.153298492766822
 49
-5.435532328511215
  0
LTYPE
  2
DASHED
 70
     0
  3
CADPAC LINETYPE
 72
    65
 73
     2
 40
15.21949051983143
 49
10.87106465702243
 49
-4.348425862808995
  0
LTYPE
  2
DASHED2
 70
     0
  3
CADPAC LINETYPE
 72
    65
 73
     2
 40
9.783958191320153
 49
6.522638794213435
 49
-3.261319397106718
  0
LTYPE
  2
DASHEDX2
 70
     0
  3
CADPAC LINETYPE
 72
    65
 73
     2
 40
26.09055517685374
 49
21.74212931404475
 49
-4.348425862808995
  0
LTYPE
  2
DOTX2
 70
     0
  3
CADPAC LINETYPE
 72
    65
 73
     2
 40
9.51218157489464
 49
0.0
 49
-9.51218157489464
  0
LTYPE
  2
DOT
 70
     0
  3
CADPAC LINETYPE
 72
    65
 73
     2
 40
7.609745259915712
 49
0.0
 49
-7.609745259915712
  0
LTYPE
  2
DOT2
 70
     0
  3
CADPAC LINETYPE
 72
    65
 73
     2
 40
5.707308944936784
 49
0.0
 49
-5.707308944936784
  0
LTYPE
  2
CENTERX2
 70
     0
  3
CADPAC LINETYPE
 72
    65
 73
     4
 40
32.61319397106729
 49
13.58883082127804
 49
-6.794415410639019
 49
5.435532328511215
 49
-6.794415410639019
  0
LTYPE
  2
CENTER
 70
     0
  3
CADPAC LINETYPE
 72
    65
 73
     4
 40
25.00344871115159
 49
10.87106465702243
 49
-5.435532328511215
 49
3.261319397106729
 49
-5.435532328511215
  0
LTYPE
  2
CENTER2
 70
     0
  3
CADPAC LINETYPE
 72
    65
 73
     4
 40
17.39370345123589
 49
8.153298492766822
 49
-4.076649246383411
 49
1.087106465702243
 49
-4.076649246383411
  0
LTYPE
  2
DASHDOTX2
 70
     0
  3
CADPAC LINETYPE
 72
    65
 73
     4
 40
52.18111035370737
 49
26.09055517685374
 49
-8.696851725617876
 49
8.696851725617876
 49
-8.696851725617876
  0
LTYPE
  2
DASHDOT
 70
     0
  3
CADPAC LINETYPE
 72
    65
 73
     4
 40
26.09055517685385
 49
13.04527758842687
 49
-4.348425862808995
 49
4.348425862808995
 49
-4.348425862808995
  0
LTYPE
  2
DASHDOT2
 70
     0
  3
CADPAC LINETYPE
 72
    65
 73
     4
 40
16.74143957181455
 49
9.783958191320153
 49
-3.261319397106746
 49
0.4348425862808995
 49
-3.261319397106746
  0
LTYPE
  2
DIVIDEX2
 70
     0
  3
CADPAC LINETYPE
 72
    65
 73
     6
 40
69.57481380494312
 49
26.09055517685374
 49
-8.696851725617876
 49
8.696851725617876
 49
-8.696851725617876
 49
8.696851725617876
 49
-8.696851725617876
  0
LTYPE
  2
DIVIDE
 70
     0
  3
CADPAC LINETYPE
 72
    65
 73
     6
 40
34.78740690247184
 49
13.04527758842687
 49
-4.348425862808995
 49
4.348425862808995
 49
-4.348425862808995
 49
4.348425862808995
 49
-4.348425862808995
  0
LTYPE
  2
DIVIDE2
 70
     0
  3
CADPAC LINETYPE
 72
    65
 73
     6
 40
26.09055517685388
 49
9.783958191320153
 49
-3.261319397106746
 49
3.261319397106746
 49
-3.261319397106746
 49
3.261319397106746
 49
-3.261319397106746
  0
LTYPE
  2
BORDERX2
 70
     0
  3
CADPAC LINETYPE
 72
    65
 73
     6
 40
47.56090787447313
 49
13.58883082127804
 49
-6.794415410639019
 49
13.58883082127804
 49
-6.794415410639019
 49
0.0
 49
-6.794415410639019
  0
LTYPE
  2
BORDER
 70
     0
  3
CADPAC LINETYPE
 72
    65
 73
     6
 40
38.0487262995785
 49
10.87106465702243
 49
-5.435532328511215
 49
10.87106465702243
 49
-5.435532328511215
 49
0.0
 49
-5.435532328511215
  0
LTYPE
  2
BORDER2
 70
     0
  3
CADPAC LINETYPE
 72
    65
 73
     6
 40
28.26476810825812
 49
8.696851725617876
 49
-5.435532328511158
 49
3.261319397106718
 49
-5.435532328511158
 49
0.0
 49
-5.435532328511215
  0
LTYPE
  2
PHANTOMX2
 70
     0
  3
CADPAC LINETYPE
 72
    65
 73
     6
 40
40.76649246383411
 49
13.58883082127804
 49
-5.435532328511215
 49
5.435532328511215
 49
-5.435532328511215
 49
5.435532328511215
 49
-5.435532328511215
  0
LTYPE
  2
PHANTOM
 70
     0
  3
CADPAC LINETYPE
 72
    65
 73
     6
 40
33.70030043676953
 49
10.87106465702243
 49
-5.435532328511215
 49
3.261319397106729
 49
-5.435532328511215
 49
3.261319397106729
 49
-5.435532328511215
  0
LTYPE
  2
PHANTOM2
 70
     0
  3
CADPAC LINETYPE
 72
    65
 73
     6
 40
28.80832134110944
 49
8.153298492766822
 49
-5.435532328511215
 49
2.174212931404486
 49
-5.435532328511215
 49
2.174212931404486
 49
-5.435532328511215
  0
LTYPE
  2
ACAD_ISO06W100
 70
     0
  3
CADPAC LINETYPE
 72
    65
 73
     8
 40
57.61664268221853
 49
26.09055517685374
 49
-5.435532328511158
 49
3.261319397106718
 49
-5.435532328511158
 49
3.261319397106718
 49
-5.435532328511158
 49
3.261319397106718
 49
-5.435532328511158
  0
LTYPE
  2
ACAD_ISO13W100
 70
     0
  3
CADPAC LINETYPE
 72
    65
 73
     8
 40
43.48425862808972
 49
10.87106465702243
 49
-5.435532328511215
 49
10.87106465702243
 49
-5.435532328511215
 49
0.0
 49
-5.435532328511215
 49
0.0
 49
-5.435532328511215
  0
LTYPE
  2
ACAD_ISO14W100
 70
     0
  3
CADPAC LINETYPE
 72
    65
 73
     8
 40
32.61319397106729
 49
10.87106465702243
 49
-5.435532328511215
 49
0.0
 49
-5.435532328511215
 49
0.0
 49
-5.435532328511215
 49
0.0
 49
-5.435532328511215
  0
ENDTAB
  0
TABLE
  2
LAYER
 70
     3
  0
LAYER
  2
0
 70
     0
 62
     7
  6
CONTINUOUS
  0
LAYER
  2
LAYER0014
 70
     0
 62
     7
  6
CONTINUOUS
  0
LAYER
  2
LAYER0002
 70
     0
 62
     7
  6
CONTINUOUS
  0
ENDTAB
  0
TABLE
  2
STYLE
 70
     5
  0
STYLE
  2
STANDARD
 70
     0
 40
0.0
 41
1.0
 50
0.0
 71
     0
 42
0.2
  3
txt
  4

  0
STYLE
  2
FDASTYLE1
 70
     0
 40
0.0
 41
0.7396449704142013
 50
0.0
 71
     0
 42
0.2
  3
txt.shx
  4
bigfont
  0
STYLE
  2
FDASTYLE0
 70
     4
 40
0.0
 41
0.8
 50
0.0
 71
     0
 42
0.2
  3
txt.shx
  4
bigfont
  0
STYLE
  2
FDASTYLE2
 70
     0
 40
0.0
 41
0.8123476848090981
 50
0.0
 71
     0
 42
0.2
  3
MSMINCHO.TTC
  4

  0
STYLE
  2
FDASTYLE3
 70
     0
 40
0.0
 41
0.6347897774113767
 50
0.0
 71
     0
 42
0.2
  3
MSGOTHIC.TTC
  4

  0
ENDTAB
  0
TABLE
  2
VIEW
 70
     0
  0
ENDTAB
  0
TABLE
  2
UCS
 70
     0
  0
ENDTAB
  0
TABLE
  2
APPID
 70
     2
  0
APPID
  2
ACAD
 70
     0
  0
APPID
  2
DAFUSIONOUT
 70
     0
  0
ENDTAB
  0
TABLE
  2
DIMSTYLE
 70
     1
  0
DIMSTYLE
  2
STANDARD
 70
     0
  3

  4

  5

  6

  7

 40
1.0
 41
0.18
 42
0.0625
 43
0.38
 44
0.18
 45
0.0
 46
0.0
 47
0.0
 48
0.0
140
0.18
141
0.09
142
0.0
143
25.4
144
1.0
145
0.0
146
1.0
147
0.09
 71
     0
 72
     0
 73
     1
 74
     1
 75
     0
 76
     0
 77
     0
 78
     0
170
     0
171
     2
172
     0
173
     0
174
     0
175
     0
176
     0
177
     0
178
     0
  0
ENDTAB
  0
ENDSEC
  0
SECTION
  2
BLOCKS
  0
BLOCK
  8
0
  2
$MODEL_SPACE
 70
     0
 10
0.0
 20
0.0
 30
0.0
  3
$MODEL_SPACE
  1

  0
ENDBLK
  5
21
  8
0
  0
BLOCK
 67
     1
  8
0
  2
$PAPER_SPACE
 70
     0
 10
0.0
 20
0.0
 30
0.0
  3
$PAPER_SPACE
  1

  0
ENDBLK
  5
1D
 67
     1
  8
0
  0
BLOCK
  8
0
  2
DC_GROUP_1
 70
     0
 10
0.0
 20
0.0
 30
0.0
  3
DC_GROUP_1
  1

  0
LINE
  5
17B
  8
LAYER0014
  6
CONTINUOUS
 62
     7
 10
-236.3279566734315
 20
-17.4545813666226
 30
0.0
 11
-236.3279566734315
 21
80.54541672602878
 31
0.0
  0
LINE
  5
17C
  8
LAYER0014
  6
CONTINUOUS
 62
     7
 10
-198.8418248801585
 20
-17.45458327397123
 30
0.0
 11
-237.3279566734315
 21
-17.45458131574115
 31
0.0
  0
LINE
  5
17D
  8
LAYER0014
  6
CONTINUOUS
 62
     7
 10
-198.8418096213694
 20
80.54541672602878
 30
0.0
 11
-237.3279566734315
 21
80.54541672602878
 31
0.0
  0
INSERT
  5
17E
  8
LAYER0014
  6
CONTINUOUS
  2
DC_GROUP_2
 10
0.0
 20
0.0
 30
0.0
  0
INSERT
  5
17F
  8
LAYER0014
  6
CONTINUOUS
  2
DC_GROUP_3
 10
0.0
 20
0.0
 30
0.0
  0
TEXT
  5
181
  8
LAYER0014
 62
     7
 10
-237.9279566734314
 20
23.65707672969088
 30
0.0
 40
4.0
  1
φ98H7
 50
90.0
 41
0.7396449704142013
  7
FDASTYLE1
 72
     5
 11
-237.9279566734314
 21
39.04169211430627
 31
0.0
  0
ENDBLK
  5
4E
  8
0
  0
BLOCK
  8
0
  2
DC_GROUP_2
 70
     0
 10
0.0
 20
0.0
 30
0.0
  3
DC_GROUP_2
  1

  0
LINE
  5
182
  8
LAYER0014
  6
CONTINUOUS
 62
     7
 10
-235.7920571385339
 20
-15.45458295899194
 30
0.0
 11
-236.3279566734315
 21
-17.4545813666226
 31
0.0
  0
LINE
  5
183
  8
LAYER0014
  6
CONTINUOUS
 62
     7
 10
-236.3279566734315
 20
-17.4545813666226
 30
0.0
 11
-236.8638562083291
 21
-15.45458295899194
 31
0.0
  0
LINE
  5
184
  8
LAYER0014
  6
CONTINUOUS
 62
     7
 10
-236.3279566734315
 20
-17.4545813666226
 30
0.0
 11
-236.3279566734315
 21
-15.45458295899194
 31
0.0
  0
ENDBLK
  5
51
  8
0
  0
BLOCK
  8
0
  2
DC_GROUP_3
 70
     0
 10
0.0
 20
0.0
 30
0.0
  3
DC_GROUP_3
  1

  0
LINE
  5
185
  8
LAYER0014
  6
CONTINUOUS
 62
     7
 10
-236.8638562083291
 20
78.54541831839812
 30
0.0
 11
-236.3279566734315
 21
80.54541672602878
 31
0.0
  0
LINE
  5
186
  8
LAYER0014
  6
CONTINUOUS
 62
     7
 10
-236.3279566734315
 20
80.54541672602878
 30
0.0
 11
-235.7920571385339
 21
78.54541831839812
 31
0.0
  0
LINE
  5
187
  8
LAYER0014
  6
CONTINUOUS
 62
     7
 10
-236.3279566734315
 20
80.54541672602878
 30
0.0
 11
-236.3279566734315
 21
78.54541831839812
 31
0.0
  0
ENDBLK
  5
54
  8
0
  0
BLOCK
  8
0
  2
DC_GROUP_4
 70
     0
 10
0.0
 20
0.0
 30
0.0
  3
DC_GROUP_4
  1

  0
LINE
  5
188
  8
LAYER0014
  6
CONTINUOUS
 62
     7
 10
-245.8409804559909
 20
-80.95458327397122
 30
0.0
 11
-245.8409804559909
 21
144.0454167260288
 31
0.0
  0
LINE
  5
189
  8
LAYER0014
  6
CONTINUOUS
 62
     7
 10
-203.0418218284007
 20
-80.95458327397122
 30
0.0
 11
-246.8409804559909
 21
-80.95458327397122
 31
0.0
  0
LINE
  5
18A
  8
LAYER0014
  6
CONTINUOUS
 62
     7
 10
-203.0418218284007
 20
144.0454167260288
 30
0.0
 11
-246.8409804559909
 21
144.0454167260288
 31
0.0
  0
INSERT
  5
18B
  8
LAYER0014
  6
CONTINUOUS
  2
DC_GROUP_5
 10
0.0
 20
0.0
 30
0.0
  0
INSERT
  5
18C
  8
LAYER0014
  6
CONTINUOUS
  2
DC_GROUP_6
 10
0.0
 20
0.0
 30
0.0
  0
TEXT
  5
18D
  8
LAYER0014
 62
     7
 10
-246.8409804559909
 20
21.94541672602878
 30
0.0
 40
4.0
  1
φ225H7
 50
90.0
 41
0.7492195629552544
  7
FDASTYLE1
 72
     5
 11
-246.8409804559909
 21
40.52606188731909
 31
0.0
  0
ENDBLK
  5
57
  8
0
  0
BLOCK
  8
0
  2
DC_GROUP_5
 70
     0
 10
0.0
 20
0.0
 30
0.0
  3
DC_GROUP_5
  1

  0
LINE
  5
18E
  8
LAYER0014
  6
CONTINUOUS
 62
     7
 10
-245.3050809210933
 20
-78.95458486634057
 30
0.0
 11
-245.8409804559909
 21
-80.95458327397122
 31
0.0
  0
LINE
  5
18F
  8
LAYER0014
  6
CONTINUOUS
 62
     7
 10
-245.8409804559909
 20
-80.95458327397122
 30
0.0
 11
-246.3768799908885
 21
-78.95458486634057
 31
0.0
  0
LINE
  5
190
  8
LAYER0014
  6
CONTINUOUS
 62
     7
 10
-245.8409804559909
 20
-80.95458327397122
 30
0.0
 11
-245.8409804559909
 21
-78.95458486634057
 31
0.0
  0
ENDBLK
  5
5A
  8
0
  0
BLOCK
  8
0
  2
DC_GROUP_6
 70
     0
 10
0.0
 20
0.0
 30
0.0
  3
DC_GROUP_6
  1

  0
LINE
  5
191
  8
LAYER0014
  6
CONTINUOUS
 62
     7
 10
-246.3768799908885
 20
142.0454183183981
 30
0.0
 11
-245.8409804559909
 21
144.0454167260288
 31
0.0
  0
LINE
  5
192
  8
LAYER0014
  6
CONTINUOUS
 62
     7
 10
-245.8409804559909
 20
144.0454167260288
 30
0.0
 11
-245.3050809210933
 21
142.0454183183981
 31
0.0
  0
LINE
  5
193
  8
LAYER0014
  6
CONTINUOUS
 62
     7
 10
-245.8409804559909
 20
144.0454167260288
 30
0.0
 11
-245.8409804559909
 21
142.0454183183981
 31
0.0
  0
ENDBLK
  5
5D
  8
0
  0
BLOCK
  8
0
  2
DC_GROUP_7
 70
     0
 10
0.0
 20
0.0
 30
0.0
  3
DC_GROUP_7
  1

  0
LINE
  5
194
  8
LAYER0014
  6
CONTINUOUS
 62
     7
 10
-255.776805295553
 20
-93.45458327397122
 30
0.0
 11
-255.776805295553
 21
156.5454167260288
 31
0.0
  0
LINE
  5
195
  8
LAYER0014
  6
CONTINUOUS
 62
     7
 10
-203.0418218284007
 20
-93.45458327397122
 30
0.0
 11
-256.776805295553
 21
-93.45458327397122
 31
0.0
  0
LINE
  5
196
  8
LAYER0014
  6
CONTINUOUS
 62
     7
 10
-203.0418218284007
 20
156.5454167260288
 30
0.0
 11
-256.776805295553
 21
156.5454167260288
 31
0.0
  0
INSERT
  5
197
  8
LAYER0014
  6
CONTINUOUS
  2
DC_GROUP_8
 10
0.0
 20
0.0
 30
0.0
  0
INSERT
  5
198
  8
LAYER0014
  6
CONTINUOUS
  2
DC_GROUP_9
 10
0.0
 20
0.0
 30
0.0
  0
TEXT
  5
199
  8
LAYER0014
 62
     7
 10
-256.776805295553
 20
25.14541672602877
 30
0.0
 40
4.0
  1
φ250
 50
90.0
 41
0.7256235827664407
  7
FDASTYLE1
 72
     5
 11
-256.776805295553
 21
37.33589291650497
 31
0.0
  0
ENDBLK
  5
60
  8
0
  0
BLOCK
  8
0
  2
DC_GROUP_8
 70
     0
 10
0.0
 20
0.0
 30
0.0
  3
DC_GROUP_8
  1

  0
LINE
  5
19A
  8
LAYER0014
  6
CONTINUOUS
 62
     7
 10
-255.2409057606554
 20
-91.45458486634055
 30
0.0
 11
-255.776805295553
 21
-93.45458327397122
 31
0.0
  0
LINE
  5
19B
  8
LAYER0014
  6
CONTINUOUS
 62
     7
 10
-255.776805295553
 20
-93.45458327397122
 30
0.0
 11
-256.3127048304506
 21
-91.45458486634055
 31
0.0
  0
LINE
  5
19C
  8
LAYER0014
  6
CONTINUOUS
 62
     7
 10
-255.776805295553
 20
-93.45458327397122
 30
0.0
 11
-255.776805295553
 21
-91.45458486634055
 31
0.0
  0
ENDBLK
  5
63
  8
0
  0
BLOCK
  8
0
  2
DC_GROUP_9
 70
     0
 10
0.0
 20
0.0
 30
0.0
  3
DC_GROUP_9
  1

  0
LINE
  5
19D
  8
LAYER0014
  6
CONTINUOUS
 62
     7
 10
-256.3127048304506
 20
154.5454183183981
 30
0.0
 11
-255.776805295553
 21
156.5454167260288
 31
0.0
  0
LINE
  5
19E
  8
LAYER0014
  6
CONTINUOUS
 62
     7
 10
-255.776805295553
 20
156.5454167260288
 30
0.0
 11
-255.2409057606554
 21
154.5454183183981
 31
0.0
  0
LINE
  5
19F
  8
LAYER0014
  6
CONTINUOUS
 62
     7
 10
-255.776805295553
 20
156.5454167260288
 30
0.0
 11
-255.776805295553
 21
154.5454183183981
 31
0.0
  0
ENDBLK
  5
66
  8
0
  0
BLOCK
  8
0
  2
DC_GROUP_10
 70
     0
 10
0.0
 20
0.0
 30
0.0
  3
DC_GROUP_10
  1

  0
LINE
  5
1A0
  8
LAYER0014
  6
CONTINUOUS
 62
     7
 10
-97.96182182840063
 20
-20.95458327397123
 30
0.0
 11
-64.40694267801001
 21
-20.95458327397123
 31
0.0
  0
LINE
  5
1A1
  8
LAYER0014
  6
CONTINUOUS
 62
     7
 10
-65.40694267801001
 20
-20.9545813666226
 30
0.0
 11
-65.40694267801001
 21
70.54541672602878
 31
0.0
  0
INSERT
  5
1A2
  8
LAYER0014
  6
CONTINUOUS
  2
DC_GROUP_11
 10
0.0
 20
0.0
 30
0.0
  0
TEXT
  5
1A3
  8
LAYER0014
 62
     7
 10
-67.00694267801001
 20
21.85183075801119
 30
0.0
 40
4.0
  1
φ105H7
 50
90.0
 41
0.7492195629552548
  7
FDASTYLE1
 72
     5
 11
-67.00694267801001
 21
40.43247591930151
 31
0.0
  0
ENDBLK
  5
69
  8
0
  0
BLOCK
  8
0
  2
DC_GROUP_11
 70
     0
 10
0.0
 20
0.0
 30
0.0
  3
DC_GROUP_11
  1

  0
LINE
  5
1A4
  8
LAYER0014
  6
CONTINUOUS
 62
     7
 10
-64.87104314311239
 20
-18.95458295899194
 30
0.0
 11
-65.40694267801001
 21
-20.9545813666226
 31
0.0
  0
LINE
  5
1A5
  8
LAYER0014
  6
CONTINUOUS
 62
     7
 10
-65.40694267801001
 20
-20.9545813666226
 30
0.0
 11
-65.94284221290762
 21
-18.95458295899194
 31
0.0
  0
LINE
  5
1A6
  8
LAYER0014
  6
CONTINUOUS
 62
     7
 10
-65.40694267801001
 20
-20.9545813666226
 30
0.0
 11
-65.40694267801001
 21
-18.95458295899194
 31
0.0
  0
ENDBLK
  5
6C
  8
0
  0
BLOCK
  8
0
  2
DC_GROUP_12
 70
     0
 10
0.0
 20
0.0
 30
0.0
  3
DC_GROUP_12
  1

  0
LINE
  5
1A7
  8
LAYER0014
  6
CONTINUOUS
 62
     7
 10
-101.4389480849091
 20
150.6876570023766
 30
0.0
 11
-78.74542080930161
 21
175.7241091074067
 31
0.0
  0
LINE
  5
1A8
  8
LAYER0014
  6
CONTINUOUS
 62
     7
 10
-78.74542839578345
 20
175.7241124047397
 30
0.0
 11
-28.91575462869361
 21
175.7241124047397
 31
0.0
  0
INSERT
  5
1A9
  8
LAYER0014
  6
CONTINUOUS
  2
DC_GROUP_13
 10
0.0
 20
0.0
 30
0.0
  0
TEXT
  5
1AA
  8
LAYER0014
 62
     7
 10
-78.01727898172095
 20
177.3241124047397
 30
0.0
 40
4.0
  1
ｾﾚｰｼｮﾝP1.5 山60ﾟ
 41
0.7790858725761773
  7
FDASTYLE1
 72
     5
 11
-30.64885792908937
 21
177.3241124047397
 31
0.0
  0
ENDBLK
  5
6F
  8
0
  0
BLOCK
  8
0
  2
DC_GROUP_13
 70
     0
 10
0.0
 20
0.0
 30
0.0
  3
DC_GROUP_13
  1

  0
LINE
  5
1AB
  8
LAYER0014
  6
CONTINUOUS
 62
     7
 10
-99.69871135623029
 20
151.8096008825176
 30
0.0
 11
-101.4389480849091
 21
150.6876570023766
 31
0.0
  0
LINE
  5
1AC
  8
LAYER0014
  6
CONTINUOUS
 62
     7
 10
-101.4389480849091
 20
150.6876570023766
 30
0.0
 11
-100.492833518728
 21
152.529408660361
 31
0.0
  0
LINE
  5
1AD
  8
LAYER0014
  6
CONTINUOUS
 62
     7
 10
-101.4389480849091
 20
150.6876570023766
 30
0.0
 11
-100.0957724374791
 21
152.1695047714393
 31
0.0
  0
ENDBLK
  5
72
  8
0
  0
BLOCK
  8
0
  2
DC_GROUP_14
 70
     0
 10
0.0
 20
0.0
 30
0.0
  3
DC_GROUP_14
  1

  0
LINE
  5
1AE
  8
LAYER0014
  6
CONTINUOUS
 62
     7
 10
-181.3235381369944
 20
12.30861557856784
 30
0.0
 11
-152.3235381369944
 21
12.30861557856784
 31
0.0
  0
INSERT
  5
1AF
  8
LAYER0014
  6
CONTINUOUS
  2
DC_GROUP_15
 10
0.0
 20
0.0
 30
0.0
  0
INSERT
  5
1B0
  8
LAYER0014
  6
CONTINUOUS
  2
DC_GROUP_16
 10
0.0
 20
0.0
 30
0.0
  0
TEXT
  5
1B1
  8
LAYER0014
 62
     7
 10
-170.0235381369944
 20
13.30861557856784
 30
0.0
 40
4.0
  1
29
 41
0.7999999999999972
  7
FDASTYLE1
 72
     5
 11
-163.6235381369944
 21
13.30861557856784
 31
0.0
  0
ENDBLK
  5
75
  8
0
  0
BLOCK
  8
0
  2
DC_GROUP_15
 70
     0
 10
0.0
 20
0.0
 30
0.0
  3
DC_GROUP_15
  1

  0
LINE
  5
1B2
  8
LAYER0014
  6
CONTINUOUS
 62
     7
 10
-179.3235397293637
 20
11.77271604367023
 30
0.0
 11
-181.3235381369944
 21
12.30861557856784
 31
0.0
  0
LINE
  5
1B3
  8
LAYER0014
  6
CONTINUOUS
 62
     7
 10
-181.3235381369944
 20
12.30861557856784
 30
0.0
 11
-179.3235397293637
 21
12.84451511346545
 31
0.0
  0
LINE
  5
1B4
  8
LAYER0014
  6
CONTINUOUS
 62
     7
 10
-181.3235381369944
 20
12.30861557856784
 30
0.0
 11
-179.3235397293637
 21
12.30861557856784
 31
0.0
  0
ENDBLK
  5
78
  8
0
  0
BLOCK
  8
0
  2
DC_GROUP_16
 70
     0
 10
0.0
 20
0.0
 30
0.0
  3
DC_GROUP_16
  1

  0
LINE
  5
1B5
  8
LAYER0014
  6
CONTINUOUS
 62
     7
 10
-154.323536544625
 20
12.84451511346545
 30
0.0
 11
-152.3235381369944
 21
12.30861557856784
 31
0.0
  0
LINE
  5
1B6
  8
LAYER0014
  6
CONTINUOUS
 62
     7
 10
-152.3235381369944
 20
12.30861557856784
 30
0.0
 11
-154.323536544625
 21
11.77271604367023
 31
0.0
  0
LINE
  5
1B7
  8
LAYER0014
  6
CONTINUOUS
 62
     7
 10
-152.3235381369944
 20
12.30861557856784
 30
0.0
 11
-154.323536544625
 21
12.30861557856784
 31
0.0
  0
ENDBLK
  5
7B
  8
0
  0
BLOCK
  8
0
  2
DC_GROUP_17
 70
     0
 10
0.0
 20
0.0
 30
0.0
  3
DC_GROUP_17
  1

  0
LINE
  5
1B8
  8
LAYER0014
  6
CONTINUOUS
 62
     7
 10
-152.3235381369944
 20
12.30861557856784
 30
0.0
 11
-134.3235381369944
 21
12.30861557856784
 31
0.0
  0
INSERT
  5
1B9
  8
LAYER0014
  6
CONTINUOUS
  2
DC_GROUP_18
 10
0.0
 20
0.0
 30
0.0
  0
INSERT
  5
1BA
  8
LAYER0014
  6
CONTINUOUS
  2
DC_GROUP_19
 10
0.0
 20
0.0
 30
0.0
  0
TEXT
  5
1BB
  8
LAYER0014
 62
     7
 10
-146.5235381369944
 20
13.30861557856784
 30
0.0
 40
4.0
  1
18
 41
0.7999999999999972
  7
FDASTYLE1
 72
     5
 11
-140.1235381369944
 21
13.30861557856784
 31
0.0
  0
ENDBLK
  5
7E
  8
0
  0
BLOCK
  8
0
  2
DC_GROUP_18
 70
     0
 10
0.0
 20
0.0
 30
0.0
  3
DC_GROUP_18
  1

  0
LINE
  5
1BC
  8
LAYER0014
  6
CONTINUOUS
 62
     7
 10
-150.3235397293637
 20
11.77271604367023
 30
0.0
 11
-152.3235381369944
 21
12.30861557856784
 31
0.0
  0
LINE
  5
1BD
  8
LAYER0014
  6
CONTINUOUS
 62
     7
 10
-152.3235381369944
 20
12.30861557856784
 30
0.0
 11
-150.3235397293637
 21
12.84451511346545
 31
0.0
  0
LINE
  5
1BE
  8
LAYER0014
  6
CONTINUOUS
 62
     7
 10
-152.3235381369944
 20
12.30861557856784
 30
0.0
 11
-150.3235397293637
 21
12.30861557856784
 31
0.0
  0
ENDBLK
  5
81
  8
0
  0
BLOCK
  8
0
  2
DC_GROUP_19
 70
     0
 10
0.0
 20
0.0
 30
0.0
  3
DC_GROUP_19
  1

  0
LINE
  5
1BF
  8
LAYER0014
  6
CONTINUOUS
 62
     7
 10
-136.323536544625
 20
12.84451511346545
 30
0.0
 11
-134.3235381369944
 21
12.30861557856784
 31
0.0
  0
LINE
  5
1C0
  8
LAYER0014
  6
CONTINUOUS
 62
     7
 10
-134.3235381369944
 20
12.30861557856784
 30
0.0
 11
-136.323536544625
 21
11.77271604367023
 31
0.0
  0
LINE
  5
1C1
  8
LAYER0014
  6
CONTINUOUS
 62
     7
 10
-134.3235381369944
 20
12.30861557856784
 30
0.0
 11
-136.323536544625
 21
12.30861557856784
 31
0.0
  0
ENDBLK
  5
84
  8
0
  0
BLOCK
  8
0
  2
DC_GROUP_20
 70
     0
 10
0.0
 20
0.0
 30
0.0
  3
DC_GROUP_20
  1

  0
LINE
  5
1C2
  8
LAYER0014
  6
CONTINUOUS
 62
     7
 10
-134.3235381369944
 20
12.30861557856784
 30
0.0
 11
-124.3235305075999
 21
12.30861557856784
 31
0.0
  0
INSERT
  5
1C3
  8
LAYER0014
  6
CONTINUOUS
  2
DC_GROUP_21
 10
0.0
 20
0.0
 30
0.0
  0
INSERT
  5
1C4
  8
LAYER0014
  6
CONTINUOUS
  2
DC_GROUP_22
 10
0.0
 20
0.0
 30
0.0
  0
TEXT
  5
1C5
  8
LAYER0014
 62
     7
 10
-132.5235343222971
 20
13.30861557856784
 30
0.0
 40
4.0
  1
10
 41
0.8000000000000007
  7
FDASTYLE1
 72
     5
 11
-126.1235343222971
 21
13.30861557856784
 31
0.0
  0
ENDBLK
  5
87
  8
0
  0
BLOCK
  8
0
  2
DC_GROUP_21
 70
     0
 10
0.0
 20
0.0
 30
0.0
  3
DC_GROUP_21
  1

  0
LINE
  5
1C6
  8
LAYER0014
  6
CONTINUOUS
 62
     7
 10
-132.3235397293637
 20
11.77271604367023
 30
0.0
 11
-134.3235381369944
 21
12.30861557856784
 31
0.0
  0
LINE
  5
1C7
  8
LAYER0014
  6
CONTINUOUS
 62
     7
 10
-134.3235381369944
 20
12.30861557856784
 30
0.0
 11
-132.3235397293637
 21
12.84451511346545
 31
0.0
  0
LINE
  5
1C8
  8
LAYER0014
  6
CONTINUOUS
 62
     7
 10
-134.3235381369944
 20
12.30861557856784
 30
0.0
 11
-132.3235397293637
 21
12.30861557856784
 31
0.0
  0
ENDBLK
  5
8A
  8
0
  0
BLOCK
  8
0
  2
DC_GROUP_22
 70
     0
 10
0.0
 20
0.0
 30
0.0
  3
DC_GROUP_22
  1

  0
LINE
  5
1C9
  8
LAYER0014
  6
CONTINUOUS
 62
     7
 10
-126.3235289152305
 20
12.84451511346545
 30
0.0
 11
-124.3235305075999
 21
12.30861557856784
 31
0.0
  0
LINE
  5
1CA
  8
LAYER0014
  6
CONTINUOUS
 62
     7
 10
-124.3235305075999
 20
12.30861557856784
 30
0.0
 11
-126.3235289152305
 21
11.77271604367023
 31
0.0
  0
LINE
  5
1CB
  8
LAYER0014
  6
CONTINUOUS
 62
     7
 10
-124.3235305075999
 20
12.30861557856784
 30
0.0
 11
-126.3235289152305
 21
12.30861557856784
 31
0.0
  0
ENDBLK
  5
8D
  8
0
  0
BLOCK
  8
0
  2
DC_GROUP_23
 70
     0
 10
0.0
 20
0.0
 30
0.0
  3
DC_GROUP_23
  1

  0
LINE
  5
1CC
  8
LAYER0014
  6
CONTINUOUS
 62
     7
 10
-121.7835305075999
 20
-13.45458327397123
 30
0.0
 11
-74.40694267801001
 21
-13.45458327397123
 31
0.0
  0
LINE
  5
1CD
  8
LAYER0014
  6
CONTINUOUS
 62
     7
 10
-75.40694267801001
 20
70.54541672602878
 30
0.0
 11
-75.40694267801001
 21
-13.4545813666226
 31
0.0
  0
INSERT
  5
1CE
  8
LAYER0014
  6
CONTINUOUS
  2
DC_GROUP_24
 10
0.0
 20
0.0
 30
0.0
  0
TEXT
  5
1CF
  8
LAYER0014
 62
     7
 10
-77.00694267801001
 20
17.05183075801119
 30
0.0
 40
4.0
  1
M90×P1.25
 50
90.0
 41
0.7655954631379965
  7
FDASTYLE1
 72
     5
 11
-77.00694267801001
 21
45.22574380148946
 31
0.0
  0
ENDBLK
  5
90
  8
0
  0
BLOCK
  8
0
  2
DC_GROUP_24
 70
     0
 10
0.0
 20
0.0
 30
0.0
  3
DC_GROUP_24
  1

  0
LINE
  5
1D0
  8
LAYER0014
  6
CONTINUOUS
 62
     7
 10
-74.87104314311239
 20
-11.45458295899194
 30
0.0
 11
-75.40694267801001
 21
-13.4545813666226
 31
0.0
  0
LINE
  5
1D1
  8
LAYER0014
  6
CONTINUOUS
 62
     7
 10
-75.40694267801001
 20
-13.4545813666226
 30
0.0
 11
-75.94284221290762
 21
-11.45458295899194
 31
0.0
  0
LINE
  5
1D2
  8
LAYER0014
  6
CONTINUOUS
 62
     7
 10
-75.40694267801001
 20
-13.4545813666226
 30
0.0
 11
-75.40694267801001
 21
-11.45458295899194
 31
0.0
  0
ENDBLK
  5
93
  8
0
  0
BLOCK
  8
0
  2
DC_GROUP_25
 70
     0
 10
0.0
 20
0.0
 30
0.0
  3
DC_GROUP_25
  1

  0
LINE
  5
1D3
  8
LAYER0014
  6
CONTINUOUS
 62
     7
 10
-103.0018218284006
 20
11.59139145747409
 30
0.0
 11
-100.5018218284006
 21
11.59139145747409
 31
0.0
  0
LINE
  5
1D4
  8
LAYER0014
  6
CONTINUOUS
 62
     7
 10
-86.96997182840065
 20
11.59139145747409
 30
0.0
 11
-100.5018218284006
 21
11.59139145747409
 31
0.0
  0
LINE
  5
1D5
  8
LAYER0014
  6
CONTINUOUS
 62
     7
 10
-108.0018218284007
 20
11.59139145747409
 30
0.0
 11
-103.0018218284006
 21
11.59139145747409
 31
0.0
  0
INSERT
  5
1D6
  8
LAYER0014
  6
CONTINUOUS
  2
DC_GROUP_26
 10
0.0
 20
0.0
 30
0.0
  0
INSERT
  5
1D7
  8
LAYER0014
  6
CONTINUOUS
  2
DC_GROUP_27
 10
0.0
 20
0.0
 30
0.0
  0
TEXT
  5
1D8
  8
LAYER0014
 62
     7
 10
-97.56997182840064
 20
12.59139145747409
 30
0.0
 40
4.0
  1
2.5
 50
-0.1000000000000078
 41
0.8000000000000002
  7
FDASTYLE1
 72
     5
 11
-87.96998645003308
 21
12.57463630516147
 31
0.0
  0
ENDBLK
  5
96
  8
0
  0
BLOCK
  8
0
  2
DC_GROUP_26
 70
     0
 10
0.0
 20
0.0
 30
0.0
  3
DC_GROUP_26
  1

  0
LINE
  5
1D9
  8
LAYER0014
  6
CONTINUOUS
 62
     7
 10
-98.50182342076998
 20
11.05549192257648
 30
0.0
 11
-100.5018218284006
 21
11.59139145747409
 31
0.0
  0
LINE
  5
1DA
  8
LAYER0014
  6
CONTINUOUS
 62
     7
 10
-100.5018218284006
 20
11.59139145747409
 30
0.0
 11
-98.50182342076998
 21
12.1272909923717
 31
0.0
  0
LINE
  5
1DB
  8
LAYER0014
  6
CONTINUOUS
 62
     7
 10
-100.5018218284006
 20
11.59139145747409
 30
0.0
 11
-98.50182342076998
 21
11.59139145747409
 31
0.0
  0
ENDBLK
  5
99
  8
0
  0
BLOCK
  8
0
  2
DC_GROUP_27
 70
     0
 10
0.0
 20
0.0
 30
0.0
  3
DC_GROUP_27
  1

  0
LINE
  5
1DC
  8
LAYER0014
  6
CONTINUOUS
 62
     7
 10
-105.0018202360313
 20
12.1272909923717
 30
0.0
 11
-103.0018218284006
 21
11.59139145747409
 31
0.0
  0
LINE
  5
1DD
  8
LAYER0014
  6
CONTINUOUS
 62
     7
 10
-103.0018218284006
 20
11.59139145747409
 30
0.0
 11
-105.0018202360313
 21
11.05549192257648
 31
0.0
  0
LINE
  5
1DE
  8
LAYER0014
  6
CONTINUOUS
 62
     7
 10
-103.0018218284006
 20
11.59139145747409
 30
0.0
 11
-105.0018202360313
 21
11.59139145747409
 31
0.0
  0
ENDBLK
  5
9C
  8
0
  0
BLOCK
  8
0
  2
DC_GROUP_28
 70
     0
 10
0.0
 20
0.0
 30
0.0
  3
DC_GROUP_28
  1

  0
LINE
  5
1DF
  8
LAYER0014
  6
CONTINUOUS
 62
     7
 10
-101.5018141990061
 20
157.008069924271
 30
0.0
 11
-101.5018141990061
 21
176.8840245141147
 31
0.0
  0
LINE
  5
1E0
  8
LAYER0014
  6
CONTINUOUS
 62
     7
 10
-100.5018218284006
 20
157.0854167260288
 30
0.0
 11
-100.5018218284006
 21
176.8840245141147
 31
0.0
  0
LINE
  5
1E1
  8
LAYER0014
  6
CONTINUOUS
 62
     7
 10
-101.5018141990061
 20
175.8840245141147
 30
0.0
 11
-100.5018218284006
 21
175.8840245141147
 31
0.0
  0
LINE
  5
1E2
  8
LAYER0014
  6
CONTINUOUS
 62
     7
 10
-91.45267174295142
 20
175.8840245141147
 30
0.0
 11
-100.5018218284006
 21
175.8840245141147
 31
0.0
  0
LINE
  5
1E3
  8
LAYER0014
  6
CONTINUOUS
 62
     7
 10
-106.5018141990061
 20
175.8840245141147
 30
0.0
 11
-101.5018141990061
 21
175.8840245141147
 31
0.0
  0
INSERT
  5
1E4
  8
LAYER0014
  6
CONTINUOUS
  2
DC_GROUP_29
 10
0.0
 20
0.0
 30
0.0
  0
INSERT
  5
1E5
  8
LAYER0014
  6
CONTINUOUS
  2
DC_GROUP_30
 10
0.0
 20
0.0
 30
0.0
  0
TEXT
  5
1E6
  8
LAYER0014
 62
     7
 10
-95.65267174295141
 20
176.8840245141147
 30
0.0
 40
4.0
  1
1
 41
0.8000000000000007
  7
FDASTYLE1
 72
     5
 11
-92.45267174295141
 21
176.8840245141147
 31
0.0
  0
ENDBLK
  5
9F
  8
0
  0
BLOCK
  8
0
  2
DC_GROUP_29
 70
     0
 10
0.0
 20
0.0
 30
0.0
  3
DC_GROUP_29
  1

  0
LINE
  5
1E7
  8
LAYER0014
  6
CONTINUOUS
 62
     7
 10
-98.50182342076998
 20
175.3481249792171
 30
0.0
 11
-100.5018218284006
 21
175.8840245141147
 31
0.0
  0
LINE
  5
1E8
  8
LAYER0014
  6
CONTINUOUS
 62
     7
 10
-100.5018218284006
 20
175.8840245141147
 30
0.0
 11
-98.50182342076998
 21
176.4199240490123
 31
0.0
  0
LINE
  5
1E9
  8
LAYER0014
  6
CONTINUOUS
 62
     7
 10
-100.5018218284006
 20
175.8840245141147
 30
0.0
 11
-98.50182342076998
 21
175.8840245141147
 31
0.0
  0
ENDBLK
  5
A2
  8
0
  0
BLOCK
  8
0
  2
DC_GROUP_30
 70
     0
 10
0.0
 20
0.0
 30
0.0
  3
DC_GROUP_30
  1

  0
LINE
  5
1EA
  8
LAYER0014
  6
CONTINUOUS
 62
     7
 10
-103.5018126066368
 20
176.4199240490123
 30
0.0
 11
-101.5018141990061
 21
175.8840245141147
 31
0.0
  0
LINE
  5
1EB
  8
LAYER0014
  6
CONTINUOUS
 62
     7
 10
-101.5018141990061
 20
175.8840245141147
 30
0.0
 11
-103.5018126066368
 21
175.3481249792171
 31
0.0
  0
LINE
  5
1EC
  8
LAYER0014
  6
CONTINUOUS
 62
     7
 10
-101.5018141990061
 20
175.8840245141147
 30
0.0
 11
-103.5018126066368
 21
175.8840245141147
 31
0.0
  0
ENDBLK
  5
A5
  8
0
  0
BLOCK
  8
0
  2
DC_GROUP_31
 70
     0
 10
0.0
 20
0.0
 30
0.0
  3
DC_GROUP_31
  1

  0
LINE
  5
1ED
  8
LAYER0014
  6
CONTINUOUS
 62
     7
 10
-67.43469933084205
 20
104.5454167260288
 30
0.0
 11
-64.40694267801001
 21
104.5454167260288
 31
0.0
  0
LINE
  5
1EE
  8
LAYER0014
  6
CONTINUOUS
 62
     7
 10
-65.40694267801001
 20
104.5454167260288
 30
0.0
 11
-65.40694267801001
 21
90.54541672602878
 31
0.0
  0
LINE
  5
1EF
  8
LAYER0014
  6
CONTINUOUS
 62
     7
 10
-98.9618141990061
 20
90.54541672602878
 30
0.0
 11
-64.40694267801001
 21
90.54541672602878
 31
0.0
  0
INSERT
  5
1F0
  8
LAYER0014
  6
CONTINUOUS
  2
DC_GROUP_32
 10
0.0
 20
0.0
 30
0.0
  0
INSERT
  5
1F1
  8
LAYER0014
  6
CONTINUOUS
  2
DC_GROUP_33
 10
0.0
 20
0.0
 30
0.0
  0
TEXT
  5
1F2
  8
LAYER0014
 62
     7
 10
-71.05694286874487
 20
92.74541672602878
 30
0.0
 40
4.0
  1
MIN
 50
90.0
 41
0.7999999999999995
  7
FDASTYLE1
 72
     5
 11
-71.05694286874487
 21
102.3454167260288
 31
0.0
  0
TEXT
  5
1F3
  8
LAYER0014
 62
     7
 10
-67.00694267801001
 20
92.74541672602877
 30
0.0
 40
4.0
  1
 13
 50
90.0
 41
0.8000000000000019
  7
FDASTYLE1
 72
     5
 11
-67.00694267801001
 21
102.3454167260288
 31
0.0
  0
ENDBLK
  5
A8
  8
0
  0
BLOCK
  8
0
  2
DC_GROUP_32
 70
     0
 10
0.0
 20
0.0
 30
0.0
  3
DC_GROUP_32
  1

  0
LINE
  5
1F4
  8
LAYER0014
  6
CONTINUOUS
 62
     7
 10
-65.94284221290764
 20
102.5454183183981
 30
0.0
 11
-65.40694267801001
 21
104.5454167260288
 31
0.0
  0
LINE
  5
1F5
  8
LAYER0014
  6
CONTINUOUS
 62
     7
 10
-65.40694267801001
 20
104.5454167260288
 30
0.0
 11
-64.8710431431124
 21
102.5454183183981
 31
0.0
  0
LINE
  5
1F6
  8
LAYER0014
  6
CONTINUOUS
 62
     7
 10
-65.40694267801001
 20
104.5454167260288
 30
0.0
 11
-65.40694267801001
 21
102.5454183183981
 31
0.0
  0
ENDBLK
  5
AB
  8
0
  0
BLOCK
  8
0
  2
DC_GROUP_33
 70
     0
 10
0.0
 20
0.0
 30
0.0
  3
DC_GROUP_33
  1

  0
LINE
  5
1F7
  8
LAYER0014
  6
CONTINUOUS
 62
     7
 10
-64.8710431431124
 20
92.54541513365945
 30
0.0
 11
-65.40694267801001
 21
90.54541672602878
 31
0.0
  0
LINE
  5
1F8
  8
LAYER0014
  6
CONTINUOUS
 62
     7
 10
-65.40694267801001
 20
90.54541672602878
 30
0.0
 11
-65.94284221290764
 21
92.54541513365945
 31
0.0
  0
LINE
  5
1F9
  8
LAYER0014
  6
CONTINUOUS
 62
     7
 10
-65.40694267801001
 20
90.54541672602878
 30
0.0
 11
-65.40694267801001
 21
92.54541513365945
 31
0.0
  0
ENDBLK
  5
AE
  8
0
  0
BLOCK
  8
0
  2
DC_GROUP_34
 70
     0
 10
0.0
 20
0.0
 30
0.0
  3
DC_GROUP_34
  1

  0
LINE
  5
1FA
  8
LAYER0014
  6
CONTINUOUS
 62
     7
 10
-98.9618141990061
 20
90.54541672602878
 30
0.0
 11
-44.40694267801001
 21
90.54541672602878
 31
0.0
  0
LINE
  5
1FB
  8
LAYER0014
  6
CONTINUOUS
 62
     7
 10
-99.96182182840063
 20
156.5454167260288
 30
0.0
 11
-44.40694267801001
 21
156.5454167260288
 31
0.0
  0
LINE
  5
1FC
  8
LAYER0014
  6
CONTINUOUS
 62
     7
 10
-45.40694267801001
 20
90.54541672602878
 30
0.0
 11
-45.40694267801001
 21
156.5454167260288
 31
0.0
  0
INSERT
  5
1FD
  8
LAYER0014
  6
CONTINUOUS
  2
DC_GROUP_35
 10
0.0
 20
0.0
 30
0.0
  0
INSERT
  5
1FE
  8
LAYER0014
  6
CONTINUOUS
  2
DC_GROUP_36
 10
0.0
 20
0.0
 30
0.0
  0
TEXT
  5
1FF
  8
LAYER0014
 62
     7
 10
-46.40694267801001
 20
120.3454167260288
 30
0.0
 40
4.0
  1
66
 50
90.0
 41
0.8000000000000007
  7
FDASTYLE1
 72
     5
 11
-46.40694267801001
 21
126.7454167260288
 31
0.0
  0
ENDBLK
  5
B1
  8
0
  0
BLOCK
  8
0
  2
DC_GROUP_35
 70
     0
 10
0.0
 20
0.0
 30
0.0
  3
DC_GROUP_35
  1

  0
LINE
  5
200
  8
LAYER0014
  6
CONTINUOUS
 62
     7
 10
-44.8710431431124
 20
92.54541513365945
 30
0.0
 11
-45.40694267801001
 21
90.54541672602878
 31
0.0
  0
LINE
  5
201
  8
LAYER0014
  6
CONTINUOUS
 62
     7
 10
-45.40694267801001
 20
90.54541672602878
 30
0.0
 11
-45.94284221290762
 21
92.54541513365945
 31
0.0
  0
LINE
  5
202
  8
LAYER0014
  6
CONTINUOUS
 62
     7
 10
-45.40694267801001
 20
90.54541672602878
 30
0.0
 11
-45.40694267801001
 21
92.54541513365945
 31
0.0
  0
ENDBLK
  5
B4
  8
0
  0
BLOCK
  8
0
  2
DC_GROUP_36
 70
     0
 10
0.0
 20
0.0
 30
0.0
  3
DC_GROUP_36
  1

  0
LINE
  5
203
  8
LAYER0014
  6
CONTINUOUS
 62
     7
 10
-45.94284221290762
 20
154.5454183183981
 30
0.0
 11
-45.40694267801001
 21
156.5454167260288
 31
0.0
  0
LINE
  5
204
  8
LAYER0014
  6
CONTINUOUS
 62
     7
 10
-45.40694267801001
 20
156.5454167260288
 30
0.0
 11
-44.8710431431124
 21
154.5454183183981
 31
0.0
  0
LINE
  5
205
  8
LAYER0014
  6
CONTINUOUS
 62
     7
 10
-45.40694267801001
 20
156.5454167260288
 30
0.0
 11
-45.40694267801001
 21
154.5454183183981
 31
0.0
  0
ENDBLK
  5
B7
  8
0
  0
BLOCK
  8
0
  2
DC_GROUP_37
 70
     0
 10
0.0
 20
0.0
 30
0.0
  3
DC_GROUP_37
  1

  0
LINE
  5
206
  8
LAYER0014
  6
CONTINUOUS
 62
     7
 10
-84.29146416022678
 20
138.9045039339877
 30
0.0
 11
-61.64509491700511
 21
165.7104101290317
 31
0.0
  0
LINE
  5
207
  8
LAYER0014
  6
CONTINUOUS
 62
     7
 10
-61.64509804300025
 20
165.7104100121616
 30
0.0
 11
-49.21652443460181
 21
165.7104100121616
 31
0.0
  0
INSERT
  5
208
  8
LAYER0014
  6
CONTINUOUS
  2
DC_GROUP_38
 10
0.0
 20
0.0
 30
0.0
  0
TEXT
  5
209
  8
LAYER0014
 62
     7
 10
-60.64509422830298
 20
167.3104100121616
 30
0.0
 40
4.0
  1
M12
 41
0.8000000000000002
  7
FDASTYLE1
 72
     5
 11
-51.04509422830298
 21
167.3104100121616
 31
0.0
  0
ENDBLK
  5
BA
  8
0
  0
BLOCK
  8
0
  2
DC_GROUP_38
 70
     0
 10
0.0
 20
0.0
 30
0.0
  3
DC_GROUP_38
  1

  0
LINE
  5
20A
  8
LAYER0014
  6
CONTINUOUS
 62
     7
 10
-82.59139593251643
 20
140.0864303120496
 30
0.0
 11
-84.29146416022678
 21
138.9045039339877
 31
0.0
  0
LINE
  5
20B
  8
LAYER0014
  6
CONTINUOUS
 62
     7
 10
-84.29146416022678
 20
138.9045039339877
 30
0.0
 11
-83.4101278321487
 21
140.7781176131752
 31
0.0
  0
LINE
  5
20C
  8
LAYER0014
  6
CONTINUOUS
 62
     7
 10
-84.29146416022678
 20
138.9045039339877
 30
0.0
 11
-83.00076188233257
 21
140.4322739626124
 31
0.0
  0
ENDBLK
  5
BD
  8
0
  0
BLOCK
  8
0
  2
DC_GROUP_39
 70
     0
 10
0.0
 20
0.0
 30
0.0
  3
DC_GROUP_39
  1

  0
LINE
  5
20D
  8
LAYER0014
  6
CONTINUOUS
 62
     7
 10
-196.3018248801585
 20
-120.8454218970181
 30
0.0
 11
-152.3235381369944
 21
-120.8454218970181
 31
0.0
  0
LINE
  5
20E
  8
LAYER0014
  6
CONTINUOUS
 62
     7
 10
-196.3018096213694
 20
-78.49458327397123
 30
0.0
 11
-196.3018252404533
 21
-121.845421897018
 31
0.0
  0
LINE
  5
20F
  8
LAYER0014
  6
CONTINUOUS
 62
     7
 10
-152.3235381369944
 20
-14.99458136662259
 30
0.0
 11
-152.3235381369944
 21
-121.8454218970181
 31
0.0
  0
INSERT
  5
210
  8
LAYER0014
  6
CONTINUOUS
  2
DC_GROUP_40
 10
0.0
 20
0.0
 30
0.0
  0
INSERT
  5
211
  8
LAYER0014
  6
CONTINUOUS
  2
DC_GROUP_41
 10
0.0
 20
0.0
 30
0.0
  0
TEXT
  5
212
  8
LAYER0014
 62
     7
 10
-183.9126815085764
 20
-119.8454218970181
 30
0.0
 40
4.0
  1
MAX 59
 41
0.7999999999999995
  7
FDASTYLE1
 72
     5
 11
-164.7126815085764
 21
-119.8454218970181
 31
0.0
  0
ENDBLK
  5
C0
  8
0
  0
BLOCK
  8
0
  2
DC_GROUP_40
 70
     0
 10
0.0
 20
0.0
 30
0.0
  3
DC_GROUP_40
  1

  0
LINE
  5
213
  8
LAYER0014
  6
CONTINUOUS
 62
     7
 10
-194.3018264725278
 20
-121.3813214319157
 30
0.0
 11
-196.3018248801585
 21
-120.8454218970181
 31
0.0
  0
LINE
  5
214
  8
LAYER0014
  6
CONTINUOUS
 62
     7
 10
-196.3018248801585
 20
-120.8454218970181
 30
0.0
 11
-194.3018264725278
 21
-120.3095223621205
 31
0.0
  0
LINE
  5
215
  8
LAYER0014
  6
CONTINUOUS
 62
     7
 10
-196.3018248801585
 20
-120.8454218970181
 30
0.0
 11
-194.3018264725278
 21
-120.8454218970181
 31
0.0
  0
ENDBLK
  5
C3
  8
0
  0
BLOCK
  8
0
  2
DC_GROUP_41
 70
     0
 10
0.0
 20
0.0
 30
0.0
  3
DC_GROUP_41
  1

  0
LINE
  5
216
  8
LAYER0014
  6
CONTINUOUS
 62
     7
 10
-154.323536544625
 20
-120.3095223621205
 30
0.0
 11
-152.3235381369944
 21
-120.8454218970181
 31
0.0
  0
LINE
  5
217
  8
LAYER0014
  6
CONTINUOUS
 62
     7
 10
-152.3235381369944
 20
-120.8454218970181
 30
0.0
 11
-154.323536544625
 21
-121.3813214319157
 31
0.0
  0
LINE
  5
218
  8
LAYER0014
  6
CONTINUOUS
 62
     7
 10
-152.3235381369944
 20
-120.8454218970181
 30
0.0
 11
-154.323536544625
 21
-120.8454218970181
 31
0.0
  0
ENDBLK
  5
C6
  8
0
  0
BLOCK
  8
0
  2
DC_GROUP_42
 70
     0
 10
0.0
 20
0.0
 30
0.0
  3
DC_GROUP_42
  1

  0
LINE
  5
219
  8
LAYER0014
  6
CONTINUOUS
 62
     7
 10
-213.5018218284007
 20
-120.8454218970181
 30
0.0
 11
-196.3018248801585
 21
-120.8454218970181
 31
0.0
  0
LINE
  5
21A
  8
LAYER0014
  6
CONTINUOUS
 62
     7
 10
-213.5018218284007
 20
-43.66958632572904
 30
0.0
 11
-213.5018218284007
 21
-121.8454218970181
 31
0.0
  0
LINE
  5
21B
  8
LAYER0014
  6
CONTINUOUS
 62
     7
 10
-196.3018096213694
 20
-78.49458327397123
 30
0.0
 11
-196.3018252404533
 21
-121.845421897018
 31
0.0
  0
LINE
  5
21C
  8
LAYER0014
  6
CONTINUOUS
 62
     7
 10
-230.2336718284007
 20
-120.8454218970181
 30
0.0
 11
-213.5018218284007
 21
-120.8454218970181
 31
0.0
  0
LINE
  5
21D
  8
LAYER0014
  6
CONTINUOUS
 62
     7
 10
-191.3018248801585
 20
-120.8454218970181
 30
0.0
 11
-196.3018248801585
 21
-120.8454218970181
 31
0.0
  0
INSERT
  5
21E
  8
LAYER0014
  6
CONTINUOUS
  2
DC_GROUP_43
 10
0.0
 20
0.0
 30
0.0
  0
INSERT
  5
21F
  8
LAYER0014
  6
CONTINUOUS
  2
DC_GROUP_44
 10
0.0
 20
0.0
 30
0.0
  0
TEXT
  5
220
  8
LAYER0014
 62
     7
 10
-229.2336718284007
 20
-119.8454218970181
 30
0.0
 40
4.0
  1
17.2
 41
0.8000000000000007
  7
FDASTYLE1
 72
     5
 11
-216.4336718284007
 21
-119.8454218970181
 31
0.0
  0
ENDBLK
  5
C9
  8
0
  0
BLOCK
  8
0
  2
DC_GROUP_43
 70
     0
 10
0.0
 20
0.0
 30
0.0
  3
DC_GROUP_43
  1

  0
LINE
  5
221
  8
LAYER0014
  6
CONTINUOUS
 62
     7
 10
-215.5018202360314
 20
-120.3095223621205
 30
0.0
 11
-213.5018218284007
 21
-120.8454218970181
 31
0.0
  0
LINE
  5
222
  8
LAYER0014
  6
CONTINUOUS
 62
     7
 10
-213.5018218284007
 20
-120.8454218970181
 30
0.0
 11
-215.5018202360314
 21
-121.3813214319157
 31
0.0
  0
LINE
  5
223
  8
LAYER0014
  6
CONTINUOUS
 62
     7
 10
-213.5018218284007
 20
-120.8454218970181
 30
0.0
 11
-215.5018202360314
 21
-120.8454218970181
 31
0.0
  0
ENDBLK
  5
CC
  8
0
  0
BLOCK
  8
0
  2
DC_GROUP_44
 70
     0
 10
0.0
 20
0.0
 30
0.0
  3
DC_GROUP_44
  1

  0
LINE
  5
224
  8
LAYER0014
  6
CONTINUOUS
 62
     7
 10
-194.3018264725278
 20
-121.3813214319157
 30
0.0
 11
-196.3018248801585
 21
-120.8454218970181
 31
0.0
  0
LINE
  5
225
  8
LAYER0014
  6
CONTINUOUS
 62
     7
 10
-196.3018248801585
 20
-120.8454218970181
 30
0.0
 11
-194.3018264725278
 21
-120.3095223621205
 31
0.0
  0
LINE
  5
226
  8
LAYER0014
  6
CONTINUOUS
 62
     7
 10
-196.3018248801585
 20
-120.8454218970181
 30
0.0
 11
-194.3018264725278
 21
-120.8454218970181
 31
0.0
  0
ENDBLK
  5
CF
  8
0
  0
BLOCK
  8
0
  2
DC_GROUP_45
 70
     0
 10
0.0
 20
0.0
 30
0.0
  3
DC_GROUP_45
  1

  0
LINE
  5
227
  8
LAYER0014
  6
CONTINUOUS
 62
     7
 10
-196.3018096213694
 20
141.5854167260288
 30
0.0
 11
-196.3018096213694
 21
176.8840245141147
 31
0.0
  0
LINE
  5
228
  8
LAYER0014
  6
CONTINUOUS
 62
     7
 10
-181.3235381369944
 20
82.08541672602878
 30
0.0
 11
-181.3235381369944
 21
176.8840245141147
 31
0.0
  0
LINE
  5
229
  8
LAYER0014
  6
CONTINUOUS
 62
     7
 10
-196.3018096213694
 20
175.8840245141147
 30
0.0
 11
-181.3235381369944
 21
175.8840245141147
 31
0.0
  0
LINE
  5
22A
  8
LAYER0014
  6
CONTINUOUS
 62
     7
 10
-217.7341092512817
 20
175.8840245141147
 30
0.0
 11
-196.3018096213694
 21
175.8840245141147
 31
0.0
  0
LINE
  5
22B
  8
LAYER0014
  6
CONTINUOUS
 62
     7
 10
-176.3235381369944
 20
175.8840245141147
 30
0.0
 11
-181.3235381369944
 21
175.8840245141147
 31
0.0
  0
INSERT
  5
22C
  8
LAYER0014
  6
CONTINUOUS
  2
DC_GROUP_46
 10
0.0
 20
0.0
 30
0.0
  0
INSERT
  5
22D
  8
LAYER0014
  6
CONTINUOUS
  2
DC_GROUP_47
 10
0.0
 20
0.0
 30
0.0
  0
TEXT
  5
22E
  8
LAYER0014
 62
     7
 10
-216.7341092512817
 20
176.8840245141147
 30
0.0
 40
4.0
  1
ＭAX30
 41
0.7396449704142013
  7
FDASTYLE1
 72
     5
 11
-201.3494938666663
 21
176.8840245141147
 31
0.0
  0
ENDBLK
  5
D2
  8
0
  0
BLOCK
  8
0
  2
DC_GROUP_46
 70
     0
 10
0.0
 20
0.0
 30
0.0
  3
DC_GROUP_46
  1

  0
LINE
  5
22F
  8
LAYER0014
  6
CONTINUOUS
 62
     7
 10
-198.3018080290001
 20
176.4199240490123
 30
0.0
 11
-196.3018096213694
 21
175.8840245141147
 31
0.0
  0
LINE
  5
230
  8
LAYER0014
  6
CONTINUOUS
 62
     7
 10
-196.3018096213694
 20
175.8840245141147
 30
0.0
 11
-198.3018080290001
 21
175.3481249792171
 31
0.0
  0
LINE
  5
231
  8
LAYER0014
  6
CONTINUOUS
 62
     7
 10
-196.3018096213694
 20
175.8840245141147
 30
0.0
 11
-198.3018080290001
 21
175.8840245141147
 31
0.0
  0
ENDBLK
  5
D5
  8
0
  0
BLOCK
  8
0
  2
DC_GROUP_47
 70
     0
 10
0.0
 20
0.0
 30
0.0
  3
DC_GROUP_47
  1

  0
LINE
  5
232
  8
LAYER0014
  6
CONTINUOUS
 62
     7
 10
-179.3235397293637
 20
175.3481249792171
 30
0.0
 11
-181.3235381369944
 21
175.8840245141147
 31
0.0
  0
LINE
  5
233
  8
LAYER0014
  6
CONTINUOUS
 62
     7
 10
-181.3235381369944
 20
175.8840245141147
 30
0.0
 11
-179.3235397293637
 21
176.4199240490123
 31
0.0
  0
LINE
  5
234
  8
LAYER0014
  6
CONTINUOUS
 62
     7
 10
-181.3235381369944
 20
175.8840245141147
 30
0.0
 11
-179.3235397293637
 21
175.8840245141147
 31
0.0
  0
ENDBLK
  5
D8
  8
0
  0
BLOCK
  8
0
  2
DC_GROUP_48
 70
     0
 10
0.0
 20
0.0
 30
0.0
  3
DC_GROUP_48
  1

  0
LINE
  5
235
  8
LAYER0014
  6
CONTINUOUS
 62
     7
 10
-97.4618141990061
 20
147.5454167260288
 30
0.0
 11
-54.40694267801001
 21
147.5454167260288
 31
0.0
  0
LINE
  5
236
  8
LAYER0014
  6
CONTINUOUS
 62
     7
 10
-63.68467212541501
 20
91.54541672602878
 30
0.0
 11
-54.40694267801001
 21
91.54541672602878
 31
0.0
  0
LINE
  5
237
  8
LAYER0014
  6
CONTINUOUS
 62
     7
 10
-55.40694267801001
 20
147.5454167260288
 30
0.0
 11
-55.40694267801001
 21
91.54541672602878
 31
0.0
  0
INSERT
  5
238
  8
LAYER0014
  6
CONTINUOUS
  2
DC_GROUP_49
 10
0.0
 20
0.0
 30
0.0
  0
INSERT
  5
239
  8
LAYER0014
  6
CONTINUOUS
  2
DC_GROUP_50
 10
0.0
 20
0.0
 30
0.0
  0
TEXT
  5
23A
  8
LAYER0014
 62
     7
 10
-56.40694267801001
 20
116.3454167260288
 30
0.0
 40
4.0
  1
56
 50
90.0
 41
0.8000000000000007
  7
FDASTYLE1
 72
     5
 11
-56.40694267801001
 21
122.7454167260288
 31
0.0
  0
ENDBLK
  5
DB
  8
0
  0
BLOCK
  8
0
  2
DC_GROUP_49
 70
     0
 10
0.0
 20
0.0
 30
0.0
  3
DC_GROUP_49
  1

  0
LINE
  5
23B
  8
LAYER0014
  6
CONTINUOUS
 62
     7
 10
-55.94284221290762
 20
145.5454183183981
 30
0.0
 11
-55.40694267801001
 21
147.5454167260288
 31
0.0
  0
LINE
  5
23C
  8
LAYER0014
  6
CONTINUOUS
 62
     7
 10
-55.40694267801001
 20
147.5454167260288
 30
0.0
 11
-54.8710431431124
 21
145.5454183183981
 31
0.0
  0
LINE
  5
23D
  8
LAYER0014
  6
CONTINUOUS
 62
     7
 10
-55.40694267801001
 20
147.5454167260288
 30
0.0
 11
-55.40694267801001
 21
145.5454183183981
 31
0.0
  0
ENDBLK
  5
DE
  8
0
  0
BLOCK
  8
0
  2
DC_GROUP_50
 70
     0
 10
0.0
 20
0.0
 30
0.0
  3
DC_GROUP_50
  1

  0
LINE
  5
23E
  8
LAYER0014
  6
CONTINUOUS
 62
     7
 10
-54.8710431431124
 20
93.54541513365943
 30
0.0
 11
-55.40694267801001
 21
91.54541672602878
 31
0.0
  0
LINE
  5
23F
  8
LAYER0014
  6
CONTINUOUS
 62
     7
 10
-55.40694267801001
 20
91.54541672602878
 30
0.0
 11
-55.94284221290762
 21
93.54541513365943
 31
0.0
  0
LINE
  5
240
  8
LAYER0014
  6
CONTINUOUS
 62
     7
 10
-55.40694267801001
 20
91.54541672602878
 30
0.0
 11
-55.40694267801001
 21
93.54541513365943
 31
0.0
  0
ENDBLK
  5
E1
  8
0
  0
BLOCK
  8
0
  2
DC_GROUP_51
 70
     0
 10
0.0
 20
0.0
 30
0.0
  3
DC_GROUP_51
  1

  0
LINE
  5
241
  8
LAYER0014
  6
CONTINUOUS
 62
     7
 10
-67.43469933084205
 20
104.5454167260288
 30
0.0
 11
-64.40694267801001
 21
104.5454167260288
 31
0.0
  0
LINE
  5
242
  8
LAYER0014
  6
CONTINUOUS
 62
     7
 10
-67.23469475320532
 20
134.5454167260288
 30
0.0
 11
-64.40694267801001
 21
134.5454167260288
 31
0.0
  0
LINE
  5
243
  8
LAYER0014
  6
CONTINUOUS
 62
     7
 10
-65.40694267801001
 20
104.5454167260288
 30
0.0
 11
-65.40694267801001
 21
134.5454167260288
 31
0.0
  0
INSERT
  5
244
  8
LAYER0014
  6
CONTINUOUS
  2
DC_GROUP_52
 10
0.0
 20
0.0
 30
0.0
  0
INSERT
  5
245
  8
LAYER0014
  6
CONTINUOUS
  2
DC_GROUP_53
 10
0.0
 20
0.0
 30
0.0
  0
TEXT
  5
246
  8
LAYER0014
 62
     7
 10
-66.40694267801001
 20
116.3454167260288
 30
0.0
 40
4.0
  1
30
 50
90.0
 41
0.8000000000000007
  7
FDASTYLE1
 72
     5
 11
-66.40694267801001
 21
122.7454167260288
 31
0.0
  0
ENDBLK
  5
E4
  8
0
  0
BLOCK
  8
0
  2
DC_GROUP_52
 70
     0
 10
0.0
 20
0.0
 30
0.0
  3
DC_GROUP_52
  1

  0
LINE
  5
247
  8
LAYER0014
  6
CONTINUOUS
 62
     7
 10
-64.8710431431124
 20
106.5454151336595
 30
0.0
 11
-65.40694267801001
 21
104.5454167260288
 31
0.0
  0
LINE
  5
248
  8
LAYER0014
  6
CONTINUOUS
 62
     7
 10
-65.40694267801001
 20
104.5454167260288
 30
0.0
 11
-65.94284221290764
 21
106.5454151336595
 31
0.0
  0
LINE
  5
249
  8
LAYER0014
  6
CONTINUOUS
 62
     7
 10
-65.40694267801001
 20
104.5454167260288
 30
0.0
 11
-65.40694267801001
 21
106.5454151336595
 31
0.0
  0
ENDBLK
  5
E7
  8
0
  0
BLOCK
  8
0
  2
DC_GROUP_53
 70
     0
 10
0.0
 20
0.0
 30
0.0
  3
DC_GROUP_53
  1

  0
LINE
  5
24A
  8
LAYER0014
  6
CONTINUOUS
 62
     7
 10
-65.94284221290764
 20
132.5454183183982
 30
0.0
 11
-65.40694267801001
 21
134.5454167260288
 31
0.0
  0
LINE
  5
24B
  8
LAYER0014
  6
CONTINUOUS
 62
     7
 10
-65.40694267801001
 20
134.5454167260288
 30
0.0
 11
-64.8710431431124
 21
132.5454183183982
 31
0.0
  0
LINE
  5
24C
  8
LAYER0014
  6
CONTINUOUS
 62
     7
 10
-65.40694267801001
 20
134.5454167260288
 30
0.0
 11
-65.40694267801001
 21
132.5454183183982
 31
0.0
  0
ENDBLK
  5
EA
  8
0
  0
BLOCK
  8
0
  2
DC_GROUP_54
 70
     0
 10
0.0
 20
0.0
 30
0.0
  3
DC_GROUP_54
  1

  0
LINE
  5
24D
  8
LAYER0014
  6
CONTINUOUS
 62
     7
 10
-200.5018218284007
 20
-133.1787654028775
 30
0.0
 11
-196.3018248801585
 21
-133.1787654028775
 31
0.0
  0
LINE
  5
24E
  8
LAYER0014
  6
CONTINUOUS
 62
     7
 10
-200.5018218284007
 20
-95.99458327397123
 30
0.0
 11
-200.5018218284007
 21
-134.1787654028775
 31
0.0
  0
LINE
  5
24F
  8
LAYER0014
  6
CONTINUOUS
 62
     7
 10
-196.3018096213694
 20
-78.49458327397123
 30
0.0
 11
-196.3018251591933
 21
-134.1787654028775
 31
0.0
  0
LINE
  5
250
  8
LAYER0014
  6
CONTINUOUS
 62
     7
 10
-215.120688789667
 20
-133.1787654028775
 30
0.0
 11
-200.5018218284007
 21
-133.1787654028775
 31
0.0
  0
LINE
  5
251
  8
LAYER0014
  6
CONTINUOUS
 62
     7
 10
-191.3018248801585
 20
-133.1787654028775
 30
0.0
 11
-196.3018248801585
 21
-133.1787654028775
 31
0.0
  0
INSERT
  5
252
  8
LAYER0014
  6
CONTINUOUS
  2
DC_GROUP_55
 10
0.0
 20
0.0
 30
0.0
  0
INSERT
  5
253
  8
LAYER0014
  6
CONTINUOUS
  2
DC_GROUP_56
 10
0.0
 20
0.0
 30
0.0
  0
TEXT
  5
254
  8
LAYER0014
 62
     7
 10
-214.1206741680345
 20
-132.1620102505649
 30
0.0
 40
4.0
  1
4.2
 50
-0.1000000000000078
 41
0.8000000000000002
  7
FDASTYLE1
 72
     5
 11
-204.5206887896669
 21
-132.1787654028775
 31
0.0
  0
ENDBLK
  5
ED
  8
0
  0
BLOCK
  8
0
  2
DC_GROUP_55
 70
     0
 10
0.0
 20
0.0
 30
0.0
  3
DC_GROUP_55
  1

  0
LINE
  5
255
  8
LAYER0014
  6
CONTINUOUS
 62
     7
 10
-202.5018202360314
 20
-132.6428658679799
 30
0.0
 11
-200.5018218284007
 21
-133.1787654028775
 31
0.0
  0
LINE
  5
256
  8
LAYER0014
  6
CONTINUOUS
 62
     7
 10
-200.5018218284007
 20
-133.1787654028775
 30
0.0
 11
-202.5018202360314
 21
-133.7146649377751
 31
0.0
  0
LINE
  5
257
  8
LAYER0014
  6
CONTINUOUS
 62
     7
 10
-200.5018218284007
 20
-133.1787654028775
 30
0.0
 11
-202.5018202360314
 21
-133.1787654028775
 31
0.0
  0
ENDBLK
  5
F0
  8
0
  0
BLOCK
  8
0
  2
DC_GROUP_56
 70
     0
 10
0.0
 20
0.0
 30
0.0
  3
DC_GROUP_56
  1

  0
LINE
  5
258
  8
LAYER0014
  6
CONTINUOUS
 62
     7
 10
-194.3018264725278
 20
-133.7146649377751
 30
0.0
 11
-196.3018248801585
 21
-133.1787654028775
 31
0.0
  0
LINE
  5
259
  8
LAYER0014
  6
CONTINUOUS
 62
     7
 10
-196.3018248801585
 20
-133.1787654028775
 30
0.0
 11
-194.3018264725278
 21
-132.6428658679799
 31
0.0
  0
LINE
  5
25A
  8
LAYER0014
  6
CONTINUOUS
 62
     7
 10
-196.3018248801585
 20
-133.1787654028775
 30
0.0
 11
-194.3018264725278
 21
-133.1787654028775
 31
0.0
  0
ENDBLK
  5
F3
  8
0
  0
BLOCK
  8
0
  2
DC_GROUP_57
 70
     0
 10
0.0
 20
0.0
 30
0.0
  3
DC_GROUP_57
  1

  0
LINE
  5
25B
  8
LAYER0014
  6
CONTINUOUS
 62
     7
 10
-196.3018248801585
 20
-133.1787654028775
 30
0.0
 11
-100.5018218284006
 21
-133.1787654028775
 31
0.0
  0
LINE
  5
25C
  8
LAYER0014
  6
CONTINUOUS
 62
     7
 10
-196.3018096213694
 20
-78.49458327397123
 30
0.0
 11
-196.3018251591933
 21
-134.1787654028775
 31
0.0
  0
LINE
  5
25D
  8
LAYER0014
  6
CONTINUOUS
 62
     7
 10
-100.5018218284006
 20
-93.99458327397123
 30
0.0
 11
-100.5018218284006
 21
-134.1787654028775
 31
0.0
  0
INSERT
  5
25E
  8
LAYER0014
  6
CONTINUOUS
  2
DC_GROUP_58
 10
0.0
 20
0.0
 30
0.0
  0
INSERT
  5
25F
  8
LAYER0014
  6
CONTINUOUS
  2
DC_GROUP_59
 10
0.0
 20
0.0
 30
0.0
  0
TEXT
  5
260
  8
LAYER0014
 62
     7
 10
-154.8018233542796
 20
-132.1787654028775
 30
0.0
 40
4.0
  1
95.8
 41
0.8000000000000007
  7
FDASTYLE1
 72
     5
 11
-142.0018233542796
 21
-132.1787654028775
 31
0.0
  0
ENDBLK
  5
F6
  8
0
  0
BLOCK
  8
0
  2
DC_GROUP_58
 70
     0
 10
0.0
 20
0.0
 30
0.0
  3
DC_GROUP_58
  1

  0
LINE
  5
261
  8
LAYER0014
  6
CONTINUOUS
 62
     7
 10
-194.3018264725278
 20
-133.7146649377751
 30
0.0
 11
-196.3018248801585
 21
-133.1787654028775
 31
0.0
  0
LINE
  5
262
  8
LAYER0014
  6
CONTINUOUS
 62
     7
 10
-196.3018248801585
 20
-133.1787654028775
 30
0.0
 11
-194.3018264725278
 21
-132.6428658679799
 31
0.0
  0
LINE
  5
263
  8
LAYER0014
  6
CONTINUOUS
 62
     7
 10
-196.3018248801585
 20
-133.1787654028775
 30
0.0
 11
-194.3018264725278
 21
-133.1787654028775
 31
0.0
  0
ENDBLK
  5
F9
  8
0
  0
BLOCK
  8
0
  2
DC_GROUP_59
 70
     0
 10
0.0
 20
0.0
 30
0.0
  3
DC_GROUP_59
  1

  0
LINE
  5
264
  8
LAYER0014
  6
CONTINUOUS
 62
     7
 10
-102.5018202360313
 20
-132.6428658679799
 30
0.0
 11
-100.5018218284006
 21
-133.1787654028775
 31
0.0
  0
LINE
  5
265
  8
LAYER0014
  6
CONTINUOUS
 62
     7
 10
-100.5018218284006
 20
-133.1787654028775
 30
0.0
 11
-102.5018202360313
 21
-133.7146649377751
 31
0.0
  0
LINE
  5
266
  8
LAYER0014
  6
CONTINUOUS
 62
     7
 10
-100.5018218284006
 20
-133.1787654028775
 30
0.0
 11
-102.5018202360313
 21
-133.1787654028775
 31
0.0
  0
ENDBLK
  5
FC
  8
0
  0
BLOCK
  8
0
  2
DC_GROUP_60
 70
     0
 10
0.0
 20
0.0
 30
0.0
  3
DC_GROUP_60
  1

  0
LINE
  5
267
  8
LAYER0014
  6
CONTINUOUS
 62
     7
 10
-200.5018218284007
 20
-145.8454218970181
 30
0.0
 11
-100.5018218284006
 21
-145.8454218970181
 31
0.0
  0
LINE
  5
268
  8
LAYER0014
  6
CONTINUOUS
 62
     7
 10
-200.5018218284007
 20
-114.8833924780728
 30
0.0
 11
-200.5018218284007
 21
-146.8454218970181
 31
0.0
  0
LINE
  5
269
  8
LAYER0014
  6
CONTINUOUS
 62
     7
 10
-100.5018218284006
 20
-93.99458327397123
 30
0.0
 11
-100.5018218284006
 21
-146.8454218970181
 31
0.0
  0
INSERT
  5
26A
  8
LAYER0014
  6
CONTINUOUS
  2
DC_GROUP_61
 10
0.0
 20
0.0
 30
0.0
  0
INSERT
  5
26B
  8
LAYER0014
  6
CONTINUOUS
  2
DC_GROUP_62
 10
0.0
 20
0.0
 30
0.0
  0
TEXT
  5
26C
  8
LAYER0014
 62
     7
 10
-155.3018218284007
 20
-144.8454218970181
 30
0.0
 40
4.0
  1
100
 41
0.8000000000000019
  7
FDASTYLE1
 72
     5
 11
-145.7018218284007
 21
-144.8454218970181
 31
0.0
  0
ENDBLK
  5
FF
  8
0
  0
BLOCK
  8
0
  2
DC_GROUP_61
 70
     0
 10
0.0
 20
0.0
 30
0.0
  3
DC_GROUP_61
  1

  0
LINE
  5
26D
  8
LAYER0014
  6
CONTINUOUS
 62
     7
 10
-198.50182342077
 20
-146.3813214319157
 30
0.0
 11
-200.5018218284007
 21
-145.8454218970181
 31
0.0
  0
LINE
  5
26E
  8
LAYER0014
  6
CONTINUOUS
 62
     7
 10
-200.5018218284007
 20
-145.8454218970181
 30
0.0
 11
-198.50182342077
 21
-145.3095223621205
 31
0.0
  0
LINE
  5
26F
  8
LAYER0014
  6
CONTINUOUS
 62
     7
 10
-200.5018218284007
 20
-145.8454218970181
 30
0.0
 11
-198.50182342077
 21
-145.8454218970181
 31
0.0
  0
ENDBLK
  5
102
  8
0
  0
BLOCK
  8
0
  2
DC_GROUP_62
 70
     0
 10
0.0
 20
0.0
 30
0.0
  3
DC_GROUP_62
  1

  0
LINE
  5
270
  8
LAYER0014
  6
CONTINUOUS
 62
     7
 10
-102.5018202360313
 20
-145.3095223621205
 30
0.0
 11
-100.5018218284006
 21
-145.8454218970181
 31
0.0
  0
LINE
  5
271
  8
LAYER0014
  6
CONTINUOUS
 62
     7
 10
-100.5018218284006
 20
-145.8454218970181
 30
0.0
 11
-102.5018202360313
 21
-146.3813214319157
 31
0.0
  0
LINE
  5
272
  8
LAYER0014
  6
CONTINUOUS
 62
     7
 10
-100.5018218284006
 20
-145.8454218970181
 30
0.0
 11
-102.5018202360313
 21
-145.8454218970181
 31
0.0
  0
ENDBLK
  5
105
  8
0
  0
BLOCK
  8
0
  2
DC_GROUP_63
 70
     0
 10
0.0
 20
0.0
 30
0.0
  3
DC_GROUP_63
  1

  0
TEXT
  5
273
  8
LAYER0014
 62
     7
 10
-217.0698526069384
 20
170.9153919879218
 30
0.0
 40
4.0
  1
ＭＩＮ 0
 41
0.637755102040816
  7
FDASTYLE1
 72
     5
 11
-202.7841383212241
 21
170.9153919879218
 31
0.0
  0
ENDBLK
  5
108
  8
0
  0
BLOCK
  8
0
  2
DC_GROUP_64
 70
     0
 10
0.0
 20
0.0
 30
0.0
  3
DC_GROUP_64
  1

  0
LINE
  5
274
  8
LAYER0014
  6
CONTINUOUS
 62
     7
 10
61.76319179252697
 20
67.03896872369464
 30
0.0
 11
-0.1103184680648184
 21
102.7608023729206
 31
0.0
  0
LINE
  5
275
  8
LAYER0014
  6
CONTINUOUS
 62
     7
 10
-15.63182897918954
 20
31.54545003236384
 30
0.0
 11
-19.19239775067935
 21
31.54548570858123
 31
0.0
  0
ARC
  5
276
  8
LAYER0014
  6
CONTINUOUS
 62
     7
 10
123.2385529432448
 20
31.54541672602877
 30
0.0
 40
141.4309539794922
 50
150.0000383250761
 51
179.9999776881997
  0
INSERT
  5
277
  8
LAYER0014
  6
CONTINUOUS
  2
DC_GROUP_65
 10
0.0
 20
0.0
 30
0.0
  0
INSERT
  5
278
  8
LAYER0014
  6
CONTINUOUS
  2
DC_GROUP_66
 10
0.0
 20
0.0
 30
0.0
  0
TEXT
  5
279
  8
LAYER0014
 62
     7
 10
-16.16107191002543
 20
63.92809421833339
 30
0.0
 40
4.0
  1
30ﾟ
 50
75.0
 41
0.8000000000000007
  7
FDASTYLE1
 72
     5
 11
-13.67640907704123
 21
73.20098215070846
 31
0.0
  0
ENDBLK
  5
10B
  8
0
  0
BLOCK
  8
0
  2
DC_GROUP_65
 70
     0
 10
0.0
 20
0.0
 30
0.0
  3
DC_GROUP_65
  1

  0
LINE
  5
27A
  8
LAYER0014
  6
CONTINUOUS
 62
     7
 10
-0.6980056637512107
 20
100.7863957823209
 30
0.0
 11
0.7557066140688988
 21
102.2608117871661
 31
0.0
  0
LINE
  5
27B
  8
LAYER0014
  6
CONTINUOUS
 62
     7
 10
0.7557066140688988
 20
102.2608117871661
 30
0.0
 11
0.23396580178688
 21
100.2570731647834
 31
0.0
  0
LINE
  5
27C
  8
LAYER0014
  6
CONTINUOUS
 62
     7
 10
0.7557066140688988
 20
102.2608117871661
 30
0.0
 11
-0.2320199309821618
 21
100.5217344735522
 31
0.0
  0
ENDBLK
  5
10E
  8
0
  0
BLOCK
  8
0
  2
DC_GROUP_66
 70
     0
 10
0.0
 20
0.0
 30
0.0
  3
DC_GROUP_66
  1

  0
LINE
  5
27D
  8
LAYER0014
  6
CONTINUOUS
 62
     7
 10
-17.642373080568
 20
33.5416309106685
 30
0.0
 11
-18.1924010362367
 21
31.54547180127577
 31
0.0
  0
LINE
  5
27E
  8
LAYER0014
  6
CONTINUOUS
 62
     7
 10
-18.1924010362367
 20
31.54547180127577
 30
0.0
 11
-18.71414535621306
 21
33.54920951030883
 31
0.0
  0
LINE
  5
27F
  8
LAYER0014
  6
CONTINUOUS
 62
     7
 10
-18.1924010362367
 20
31.54547180127577
 30
0.0
 11
-18.17825921839053
 21
33.54542021048866
 31
0.0
  0
ENDBLK
  5
111
  8
0
  0
BLOCK
  8
0
  2
DC_GROUP_67
 70
     0
 10
0.0
 20
0.0
 30
0.0
  3
DC_GROUP_67
  1

  0
LINE
  5
280
  8
LAYER0014
  6
CONTINUOUS
 62
     7
 10
113.2385453138502
 20
-95.99458327397123
 30
0.0
 11
113.2385453138502
 21
-111.8454218970181
 31
0.0
  0
LINE
  5
281
  8
LAYER0014
  6
CONTINUOUS
 62
     7
 10
133.2385529432448
 20
-95.99458327397123
 30
0.0
 11
133.2385529432448
 21
-111.8454218970181
 31
0.0
  0
LINE
  5
282
  8
LAYER0014
  6
CONTINUOUS
 62
     7
 10
113.2385453138502
 20
-110.8454218970181
 30
0.0
 11
133.2385529432448
 21
-110.8454218970181
 31
0.0
  0
INSERT
  5
283
  8
LAYER0014
  6
CONTINUOUS
  2
DC_GROUP_68
 10
0.0
 20
0.0
 30
0.0
  0
INSERT
  5
284
  8
LAYER0014
  6
CONTINUOUS
  2
DC_GROUP_69
 10
0.0
 20
0.0
 30
0.0
  0
TEXT
  5
285
  8
LAYER0014
 62
     7
 10
116.8385529432447
 20
-109.2454218970181
 30
0.0
 40
4.0
  1
20H8
 41
0.8000000000000016
  7
FDASTYLE1
 72
     5
 11
129.6385529432448
 21
-109.2454218970181
 31
0.0
  0
ENDBLK
  5
114
  8
0
  0
BLOCK
  8
0
  2
DC_GROUP_68
 70
     0
 10
0.0
 20
0.0
 30
0.0
  3
DC_GROUP_68
  1

  0
LINE
  5
286
  8
LAYER0014
  6
CONTINUOUS
 62
     7
 10
115.2385437214809
 20
-111.3813214319157
 30
0.0
 11
113.2385453138502
 21
-110.8454218970181
 31
0.0
  0
LINE
  5
287
  8
LAYER0014
  6
CONTINUOUS
 62
     7
 10
113.2385453138502
 20
-110.8454218970181
 30
0.0
 11
115.2385437214809
 21
-110.3095223621205
 31
0.0
  0
LINE
  5
288
  8
LAYER0014
  6
CONTINUOUS
 62
     7
 10
113.2385453138502
 20
-110.8454218970181
 30
0.0
 11
115.2385437214809
 21
-110.8454218970181
 31
0.0
  0
ENDBLK
  5
117
  8
0
  0
BLOCK
  8
0
  2
DC_GROUP_69
 70
     0
 10
0.0
 20
0.0
 30
0.0
  3
DC_GROUP_69
  1

  0
LINE
  5
289
  8
LAYER0014
  6
CONTINUOUS
 62
     7
 10
131.2385545356142
 20
-110.3095223621205
 30
0.0
 11
133.2385529432448
 21
-110.8454218970181
 31
0.0
  0
LINE
  5
28A
  8
LAYER0014
  6
CONTINUOUS
 62
     7
 10
133.2385529432448
 20
-110.8454218970181
 30
0.0
 11
131.2385545356142
 21
-111.3813214319157
 31
0.0
  0
LINE
  5
28B
  8
LAYER0014
  6
CONTINUOUS
 62
     7
 10
133.2385529432448
 20
-110.8454218970181
 30
0.0
 11
131.2385545356142
 21
-110.8454218970181
 31
0.0
  0
ENDBLK
  5
11A
  8
0
  0
BLOCK
  8
0
  2
DC_GROUP_70
 70
     0
 10
0.0
 20
0.0
 30
0.0
  3
DC_GROUP_70
  1

  0
LINE
  5
28C
  8
LAYER0014
  6
CONTINUOUS
 62
     7
 10
71.83493647362131
 20
-25.05145611958151
 30
0.0
 11
35.89889504601006
 21
-110.7450912397779
 31
0.0
  0
LINE
  5
28D
  8
LAYER0014
  6
CONTINUOUS
 62
     7
 10
35.89889611341077
 20
-110.7450953589322
 30
0.0
 11
3.848029032722295
 21
-110.7450953589322
 31
0.0
  0
INSERT
  5
28E
  8
LAYER0014
  6
CONTINUOUS
  2
DC_GROUP_71
 10
0.0
 20
0.0
 30
0.0
  0
TEXT
  5
28F
  8
LAYER0014
 62
     7
 10
5.67659768201429
 20
-109.1450877295376
 30
0.0
 40
4.0
  1
PCD133.35
 41
0.7999999999999999
  7
FDASTYLE1
 72
     5
 11
34.47659768201429
 21
-109.1450877295376
 31
0.0
  0
ENDBLK
  5
11D
  8
0
  0
BLOCK
  8
0
  2
DC_GROUP_71
 70
     0
 10
0.0
 20
0.0
 30
0.0
  3
DC_GROUP_71
  1

  0
LINE
  5
290
  8
LAYER0014
  6
CONTINUOUS
 62
     7
 10
70.56728018211024
 20
-26.68859675759067
 30
0.0
 11
71.83493647362131
 21
-25.05145611958151
 31
0.0
  0
LINE
  5
291
  8
LAYER0014
  6
CONTINUOUS
 62
     7
 10
71.83493647362131
 20
-25.05145611958151
 30
0.0
 11
71.55568725904968
 21
-27.10309005822402
 31
0.0
  0
LINE
  5
292
  8
LAYER0014
  6
CONTINUOUS
 62
     7
 10
71.83493647362131
 20
-25.05145611958151
 30
0.0
 11
71.06148372057996
 21
-26.89584340790735
 31
0.0
  0
ENDBLK
  5
120
  8
0
  0
BLOCK
  8
0
  2
DC_GROUP_72
 70
     0
 10
0.0
 20
0.0
 30
0.0
  3
DC_GROUP_72
  1

  0
LINE
  5
293
  8
LAYER0014
  6
CONTINUOUS
 62
     7
 10
63.68954309574009
 20
91.09441380418836
 30
0.0
 11
13.76266341871933
 21
141.021179851267
 31
0.0
  0
LINE
  5
294
  8
LAYER0014
  6
CONTINUOUS
 62
     7
 10
-12.25600256822985
 20
31.54538620845065
 30
0.0
 11
-31.58364783190173
 21
31.54538620845065
 31
0.0
  0
ARC
  5
295
  8
LAYER0014
  6
CONTINUOUS
 62
     7
 10
123.2385529432448
 20
31.54541672602877
 30
0.0
 40
152.5362091064453
 50
135.0000276623794
 51
179.9999640278213
  0
INSERT
  5
296
  8
LAYER0014
  6
CONTINUOUS
  2
DC_GROUP_73
 10
0.0
 20
0.0
 30
0.0
  0
INSERT
  5
297
  8
LAYER0014
  6
CONTINUOUS
  2
DC_GROUP_74
 10
0.0
 20
0.0
 30
0.0
  0
TEXT
  5
298
  8
LAYER0014
 62
     7
 10
-21.00827266921167
 20
86.10197285150935
 30
0.0
 40
4.0
  1
45ﾟ
 50
67.40000000000001
 41
0.7999999999999995
  7
FDASTYLE1
 72
     5
 11
-17.31903757167756
 21
94.96479093579396
 31
0.0
  0
ENDBLK
  5
123
  8
0
  0
BLOCK
  8
0
  2
DC_GROUP_73
 70
     0
 10
0.0
 20
0.0
 30
0.0
  3
DC_GROUP_73
  1

  0
LINE
  5
299
  8
LAYER0014
  6
CONTINUOUS
 62
     7
 10
13.59278846029481
 20
138.3577441479303
 30
0.0
 11
15.37911303313152
 21
139.4047524872038
 31
0.0
  0
LINE
  5
29A
  8
LAYER0014
  6
CONTINUOUS
 62
     7
 10
15.37911303313152
 20
139.4047524872038
 30
0.0
 11
14.355617391102
 21
137.6048528753434
 31
0.0
  0
LINE
  5
29B
  8
LAYER0014
  6
CONTINUOUS
 62
     7
 10
15.37911303313152
 20
139.4047524872038
 30
0.0
 11
13.9742029256984
 21
137.9812985116368
 31
0.0
  0
ENDBLK
  5
126
  8
0
  0
BLOCK
  8
0
  2
DC_GROUP_74
 70
     0
 10
0.0
 20
0.0
 30
0.0
  3
DC_GROUP_74
  1

  0
LINE
  5
29C
  8
LAYER0014
  6
CONTINUOUS
 62
     7
 10
-28.74865536161227
 20
33.54195434366011
 30
0.0
 11
-29.29765616317047
 21
31.54551249328803
 31
0.0
  0
LINE
  5
29D
  8
LAYER0014
  6
CONTINUOUS
 62
     7
 10
-29.29765616317047
 20
31.54551249328803
 30
0.0
 11
-29.82043139479449
 21
33.54898148462009
 31
0.0
  0
LINE
  5
29E
  8
LAYER0014
  6
CONTINUOUS
 62
     7
 10
-29.29765616317047
 20
31.54551249328803
 30
0.0
 11
-29.28454337820338
 21
33.5454679141401
 31
0.0
  0
ENDBLK
  5
129
  8
0
  0
BLOCK
  8
0
  2
DC_GROUP_75
 70
     0
 10
0.0
 20
0.0
 30
0.0
  3
DC_GROUP_75
  1

  0
LINE
  5
29F
  8
LAYER0014
  6
CONTINUOUS
 62
     7
 10
100.7385453138502
 20
-95.99458327397123
 30
0.0
 11
100.7385453138502
 21
-124.1787654028775
 31
0.0
  0
LINE
  5
2A0
  8
LAYER0014
  6
CONTINUOUS
 62
     7
 10
145.7385529432448
 20
-95.99458327397123
 30
0.0
 11
145.7385529432448
 21
-124.1787654028775
 31
0.0
  0
LINE
  5
2A1
  8
LAYER0014
  6
CONTINUOUS
 62
     7
 10
100.7385453138502
 20
-123.1787654028775
 30
0.0
 11
145.7385529432448
 21
-123.1787654028775
 31
0.0
  0
INSERT
  5
2A2
  8
LAYER0014
  6
CONTINUOUS
  2
DC_GROUP_76
 10
0.0
 20
0.0
 30
0.0
  0
INSERT
  5
2A3
  8
LAYER0014
  6
CONTINUOUS
  2
DC_GROUP_77
 10
0.0
 20
0.0
 30
0.0
  0
TEXT
  5
2A4
  8
LAYER0014
 62
     7
 10
120.0385529432448
 20
-121.5787654028775
 30
0.0
 40
4.0
  1
45
 41
0.7999999999999989
  7
FDASTYLE1
 72
     5
 11
126.4385529432448
 21
-121.5787654028775
 31
0.0
  0
ENDBLK
  5
12C
  8
0
  0
BLOCK
  8
0
  2
DC_GROUP_76
 70
     0
 10
0.0
 20
0.0
 30
0.0
  3
DC_GROUP_76
  1

  0
LINE
  5
2A5
  8
LAYER0014
  6
CONTINUOUS
 62
     7
 10
102.7385437214809
 20
-123.7146649377751
 30
0.0
 11
100.7385453138502
 21
-123.1787654028775
 31
0.0
  0
LINE
  5
2A6
  8
LAYER0014
  6
CONTINUOUS
 62
     7
 10
100.7385453138502
 20
-123.1787654028775
 30
0.0
 11
102.7385437214809
 21
-122.6428658679799
 31
0.0
  0
LINE
  5
2A7
  8
LAYER0014
  6
CONTINUOUS
 62
     7
 10
100.7385453138502
 20
-123.1787654028775
 30
0.0
 11
102.7385437214809
 21
-123.1787654028775
 31
0.0
  0
ENDBLK
  5
12F
  8
0
  0
BLOCK
  8
0
  2
DC_GROUP_77
 70
     0
 10
0.0
 20
0.0
 30
0.0
  3
DC_GROUP_77
  1

  0
LINE
  5
2A8
  8
LAYER0014
  6
CONTINUOUS
 62
     7
 10
143.7385545356142
 20
-122.6428658679799
 30
0.0
 11
145.7385529432448
 21
-123.1787654028775
 31
0.0
  0
LINE
  5
2A9
  8
LAYER0014
  6
CONTINUOUS
 62
     7
 10
145.7385529432448
 20
-123.1787654028775
 30
0.0
 11
143.7385545356142
 21
-123.7146649377751
 31
0.0
  0
LINE
  5
2AA
  8
LAYER0014
  6
CONTINUOUS
 62
     7
 10
145.7385529432448
 20
-123.1787654028775
 30
0.0
 11
143.7385545356142
 21
-123.1787654028775
 31
0.0
  0
ENDBLK
  5
132
  8
0
  0
BLOCK
  8
0
  2
DC_GROUP_78
 70
     0
 10
0.0
 20
0.0
 30
0.0
  3
DC_GROUP_78
  1

  0
LINE
  5
2AB
  8
LAYER0014
  6
CONTINUOUS
 62
     7
 10
176.2644702164618
 20
-2.322676166455583
 30
0.0
 11
204.2147256436345
 21
-110.7450931689424
 31
0.0
  0
LINE
  5
2AC
  8
LAYER0014
  6
CONTINUOUS
 62
     7
 10
204.2147187147291
 20
-110.7450953589322
 30
0.0
 11
252.7396515760573
 21
-110.7450953589322
 31
0.0
  0
INSERT
  5
2AD
  8
LAYER0014
  6
CONTINUOUS
  2
DC_GROUP_79
 10
0.0
 20
0.0
 30
0.0
  0
TEXT
  5
2AE
  8
LAYER0014
 62
     7
 10
206.1110810194166
 20
-109.1450877295376
 30
0.0
 40
4.0
  1
4-M8×15 PCD120
 41
0.777623487403293
  7
FDASTYLE1
 72
     5
 11
250.2800951039237
 21
-109.1450877295376
 31
0.0
  0
ENDBLK
  5
135
  8
0
  0
BLOCK
  8
0
  2
DC_GROUP_79
 70
     0
 10
0.0
 20
0.0
 30
0.0
  3
DC_GROUP_79
  1

  0
LINE
  5
2AF
  8
LAYER0014
  6
CONTINUOUS
 62
     7
 10
176.2447942939197
 20
-4.393133797053412
 30
0.0
 11
176.2644702164618
 21
-2.322676166455583
 31
0.0
  0
LINE
  5
2B0
  8
LAYER0014
  6
CONTINUOUS
 62
     7
 10
176.2644702164618
 20
-2.322676166455583
 30
0.0
 11
177.282661835235
 21
-4.125581535433302
 31
0.0
  0
LINE
  5
2B1
  8
LAYER0014
  6
CONTINUOUS
 62
     7
 10
176.2644702164618
 20
-2.322676166455583
 30
0.0
 11
176.7637280645774
 21
-4.259357666243357
 31
0.0
  0
ENDBLK
  5
138
  8
0
  0
BLOCK
  8
0
  2
DC_GROUP_80
 70
     0
 10
0.0
 20
0.0
 30
0.0
  3
DC_GROUP_80
  1

  0
LINE
  5
2B2
  8
LAYER0014
  6
CONTINUOUS
 62
     7
 10
-99.02011803201391
 20
90.54541672602878
 30
0.0
 11
-54.40694267801001
 21
90.54541672602878
 31
0.0
  0
LINE
  5
2B3
  8
LAYER0014
  6
CONTINUOUS
 62
     7
 10
-55.40694267801001
 20
31.54541863337741
 30
0.0
 11
-55.40694267801001
 21
90.54541672602878
 31
0.0
  0
LINE
  5
2B4
  8
LAYER0014
  6
CONTINUOUS
 62
     7
 10
-94.16772292463961
 20
31.54541672602877
 30
0.0
 11
-82.28007907263466
 21
31.54541672602877
 31
0.0
  0
LINE
  5
2B5
  8
LAYER0014
  6
CONTINUOUS
 62
     7
 10
-64.13578056167975
 20
31.54541672602877
 30
0.0
 11
-54.40694267801001
 21
31.54541672602877
 31
0.0
  0
INSERT
  5
2B6
  8
LAYER0014
  6
CONTINUOUS
  2
DC_GROUP_81
 10
0.0
 20
0.0
 30
0.0
  0
INSERT
  5
2B7
  8
LAYER0014
  6
CONTINUOUS
  2
DC_GROUP_82
 10
0.0
 20
0.0
 30
0.0
  0
TEXT
  5
2B8
  8
LAYER0014
 62
     7
 10
-56.40694267801001
 20
51.44541767970309
 30
0.0
 40
4.0
  1
MAX 64
 50
90.0
 41
0.7999999999999998
  7
FDASTYLE1
 72
     5
 11
-56.40694267801001
 21
70.64541767970309
 31
0.0
  0
ENDBLK
  5
13B
  8
0
  0
BLOCK
  8
0
  2
DC_GROUP_81
 70
     0
 10
0.0
 20
0.0
 30
0.0
  3
DC_GROUP_81
  1

  0
LINE
  5
2B9
  8
LAYER0014
  6
CONTINUOUS
 62
     7
 10
-54.8710431431124
 20
33.54541704100807
 30
0.0
 11
-55.40694267801001
 21
31.54541863337741
 31
0.0
  0
LINE
  5
2BA
  8
LAYER0014
  6
CONTINUOUS
 62
     7
 10
-55.40694267801001
 20
31.54541863337741
 30
0.0
 11
-55.94284221290762
 21
33.54541704100807
 31
0.0
  0
LINE
  5
2BB
  8
LAYER0014
  6
CONTINUOUS
 62
     7
 10
-55.40694267801001
 20
31.54541863337741
 30
0.0
 11
-55.40694267801001
 21
33.54541704100807
 31
0.0
  0
ENDBLK
  5
13E
  8
0
  0
BLOCK
  8
0
  2
DC_GROUP_82
 70
     0
 10
0.0
 20
0.0
 30
0.0
  3
DC_GROUP_82
  1

  0
LINE
  5
2BC
  8
LAYER0014
  6
CONTINUOUS
 62
     7
 10
-55.94284221290762
 20
88.54541831839812
 30
0.0
 11
-55.40694267801001
 21
90.54541672602878
 31
0.0
  0
LINE
  5
2BD
  8
LAYER0014
  6
CONTINUOUS
 62
     7
 10
-55.40694267801001
 20
90.54541672602878
 30
0.0
 11
-54.8710431431124
 21
88.54541831839812
 31
0.0
  0
LINE
  5
2BE
  8
LAYER0014
  6
CONTINUOUS
 62
     7
 10
-55.40694267801001
 20
90.54541672602878
 30
0.0
 11
-55.40694267801001
 21
88.54541831839812
 31
0.0
  0
ENDBLK
  5
141
  8
0
  0
BLOCK
  8
0
  2
DC_GROUP_83
 70
     0
 10
0.0
 20
0.0
 30
0.0
  3
DC_GROUP_83
  1

  0
LINE
  5
2BF
  8
0
  6
CONTINUOUS
 62
     9
 10
-151.3235381369944
 20
-12.20458327397122
 30
0.0
 11
-227.3819049340307
 21
-12.20458327397122
 31
0.0
  0
LINE
  5
2C0
  8
0
  6
CONTINUOUS
 62
     9
 10
-151.3235381369944
 20
75.29541672602878
 30
0.0
 11
-227.3819049340307
 21
75.29541672602878
 31
0.0
  0
LINE
  5
2C1
  8
0
  6
CONTINUOUS
 62
     9
 10
-226.3819049340307
 20
-12.20458327397122
 30
0.0
 11
-226.3819049340307
 21
75.29541672602878
 31
0.0
  0
INSERT
  5
2C2
  8
0
  6
CONTINUOUS
  2
DC_GROUP_84
 10
0.0
 20
0.0
 30
0.0
  0
INSERT
  5
2C3
  8
0
  6
CONTINUOUS
  2
DC_GROUP_85
 10
0.0
 20
0.0
 30
0.0
  0
TEXT
  5
2C4
  8
0
 62
     7
 10
-227.3819049340307
 20
20.34541672602878
 30
0.0
 40
4.0
  1
φ87.5Ｈ7
 50
90.0
 41
0.7158509861212555
  7
FDASTYLE1
 72
     5
 11
-227.3819049340307
 21
41.53460591521795
 31
0.0
  0
ENDBLK
  5
144
  8
0
  0
BLOCK
  8
0
  2
DC_GROUP_84
 70
     0
 10
0.0
 20
0.0
 30
0.0
  3
DC_GROUP_84
  1

  0
LINE
  5
2C5
  8
0
  6
CONTINUOUS
 62
     9
 10
-225.8460053991331
 20
-10.20458486634056
 30
0.0
 11
-226.3819049340307
 21
-12.20458327397122
 31
0.0
  0
LINE
  5
2C6
  8
0
  6
CONTINUOUS
 62
     9
 10
-226.3819049340307
 20
-12.20458327397122
 30
0.0
 11
-226.9178044689283
 21
-10.20458486634056
 31
0.0
  0
LINE
  5
2C7
  8
0
  6
CONTINUOUS
 62
     9
 10
-226.3819049340307
 20
-12.20458327397122
 30
0.0
 11
-226.3819049340307
 21
-10.20458486634056
 31
0.0
  0
ENDBLK
  5
147
  8
0
  0
BLOCK
  8
0
  2
DC_GROUP_85
 70
     0
 10
0.0
 20
0.0
 30
0.0
  3
DC_GROUP_85
  1

  0
LINE
  5
2C8
  8
0
  6
CONTINUOUS
 62
     9
 10
-226.9178044689283
 20
73.29541831839811
 30
0.0
 11
-226.3819049340307
 21
75.29541672602878
 31
0.0
  0
LINE
  5
2C9
  8
0
  6
CONTINUOUS
 62
     9
 10
-226.3819049340307
 20
75.29541672602878
 30
0.0
 11
-225.8460053991331
 21
73.29541831839811
 31
0.0
  0
LINE
  5
2CA
  8
0
  6
CONTINUOUS
 62
     9
 10
-226.3819049340307
 20
75.29541672602878
 30
0.0
 11
-226.3819049340307
 21
73.29541831839811
 31
0.0
  0
ENDBLK
  5
14A
  8
0
  0
BLOCK
  8
0
  2
DC_GROUP_86
 70
     0
 10
0.0
 20
0.0
 30
0.0
  3
DC_GROUP_86
  1

  0
LINE
  5
2CB
  8
0
  6
CONTINUOUS
 62
     9
 10
-181.3235381369944
 20
-3.454583273971227
 30
0.0
 11
-215.525399822716
 21
-3.454583273971227
 31
0.0
  0
LINE
  5
2CC
  8
0
  6
CONTINUOUS
 62
     9
 10
-181.3235381369944
 20
66.54541672602878
 30
0.0
 11
-215.525399822716
 21
66.54541672602878
 31
0.0
  0
LINE
  5
2CD
  8
0
  6
CONTINUOUS
 62
     9
 10
-214.525399822716
 20
-3.454583273971227
 30
0.0
 11
-214.525399822716
 21
66.54541672602878
 31
0.0
  0
INSERT
  5
2CE
  8
0
  6
CONTINUOUS
  2
DC_GROUP_87
 10
0.0
 20
0.0
 30
0.0
  0
INSERT
  5
2CF
  8
0
  6
CONTINUOUS
  2
DC_GROUP_88
 10
0.0
 20
0.0
 30
0.0
  0
TEXT
  5
2D0
  8
0
 62
     7
 10
-215.525399822716
 20
26.74541672602876
 30
0.0
 40
4.0
  1
φ70
 50
90.0
 41
0.7031250000000024
  7
FDASTYLE1
 72
     5
 11
-215.525399822716
 21
35.74541672602879
 31
0.0
  0
TEXT
  5
2D1
  8
0
 62
     7
 10
-217.725399822716
 20
37.34541672602879
 30
0.0
 40
2.2
  1
+0.5
 50
90.0
 41
0.7999999999999991
  7
FDASTYLE1
 72
     5
 11
-217.725399822716
 21
44.38541672602878
 31
0.0
  0
TEXT
  5
2D2
  8
0
 62
     7
 10
-215.325399822716
 20
37.34541672602879
 30
0.0
 40
2.2
  1
　0
 50
90.0
 41
0.661157024793392
  7
FDASTYLE1
 72
     5
 11
-215.325399822716
 21
40.54541672602881
 31
0.0
  0
ENDBLK
  5
14D
  8
0
  0
BLOCK
  8
0
  2
DC_GROUP_87
 70
     0
 10
0.0
 20
0.0
 30
0.0
  3
DC_GROUP_87
  1

  0
LINE
  5
2D3
  8
0
  6
CONTINUOUS
 62
     9
 10
-213.9895002878184
 20
-1.454584866340565
 30
0.0
 11
-214.525399822716
 21
-3.454583273971227
 31
0.0
  0
LINE
  5
2D4
  8
0
  6
CONTINUOUS
 62
     9
 10
-214.525399822716
 20
-3.454583273971227
 30
0.0
 11
-215.0612993576136
 21
-1.454584866340565
 31
0.0
  0
LINE
  5
2D5
  8
0
  6
CONTINUOUS
 62
     9
 10
-214.525399822716
 20
-3.454583273971227
 30
0.0
 11
-214.525399822716
 21
-1.454584866340565
 31
0.0
  0
ENDBLK
  5
150
  8
0
  0
BLOCK
  8
0
  2
DC_GROUP_88
 70
     0
 10
0.0
 20
0.0
 30
0.0
  3
DC_GROUP_88
  1

  0
LINE
  5
2D6
  8
0
  6
CONTINUOUS
 62
     9
 10
-215.0612993576136
 20
64.54541831839812
 30
0.0
 11
-214.525399822716
 21
66.54541672602878
 31
0.0
  0
LINE
  5
2D7
  8
0
  6
CONTINUOUS
 62
     9
 10
-214.525399822716
 20
66.54541672602878
 30
0.0
 11
-213.9895002878184
 21
64.54541831839812
 31
0.0
  0
LINE
  5
2D8
  8
0
  6
CONTINUOUS
 62
     9
 10
-214.525399822716
 20
66.54541672602878
 30
0.0
 11
-214.525399822716
 21
64.54541831839812
 31
0.0
  0
ENDBLK
  5
153
  8
0
  0
BLOCK
  8
0
  2
DC_GROUP_89
 70
     0
 10
0.0
 20
0.0
 30
0.0
  3
DC_GROUP_89
  1

  0
LINE
  5
2D9
  8
0
  6
CONTINUOUS
 62
     9
 10
-214.5018218284007
 20
-41.12958632572904
 30
0.0
 11
-227.5167403250378
 21
-41.12958632572904
 31
0.0
  0
LINE
  5
2DA
  8
0
  6
CONTINUOUS
 62
     9
 10
-214.5018218284007
 20
-29.12958632572904
 30
0.0
 11
-227.5167403250378
 21
-29.12958632572904
 31
0.0
  0
LINE
  5
2DB
  8
0
  6
CONTINUOUS
 62
     9
 10
-226.5167403250378
 20
-41.12958632572904
 30
0.0
 11
-226.5167403250378
 21
-29.12958632572904
 31
0.0
  0
LINE
  5
2DC
  8
0
  6
CONTINUOUS
 62
     9
 10
-226.5167403250378
 20
-54.62896468480324
 30
0.0
 11
-226.5167403250378
 21
-41.12958632572904
 31
0.0
  0
LINE
  5
2DD
  8
0
  6
CONTINUOUS
 62
     9
 10
-226.5167403250378
 20
-24.12958632572904
 30
0.0
 11
-226.5167403250378
 21
-29.12958632572904
 31
0.0
  0
INSERT
  5
2DE
  8
0
  6
CONTINUOUS
  2
DC_GROUP_90
 10
0.0
 20
0.0
 30
0.0
  0
INSERT
  5
2DF
  8
0
  6
CONTINUOUS
  2
DC_GROUP_91
 10
0.0
 20
0.0
 30
0.0
  0
TEXT
  5
2E0
  8
0
 62
     7
 10
-227.5167403250378
 20
-53.62896468480324
 30
0.0
 40
4.0
  1
M12
 50
90.0
 41
0.7999999999999995
  7
FDASTYLE1
 72
     5
 11
-227.5167403250378
 21
-44.02896468480325
 31
0.0
  0
ENDBLK
  5
156
  8
0
  0
BLOCK
  8
0
  2
DC_GROUP_90
 70
     0
 10
0.0
 20
0.0
 30
0.0
  3
DC_GROUP_90
  1

  0
LINE
  5
2E1
  8
0
  6
CONTINUOUS
 62
     9
 10
-227.0526398599354
 20
-43.12958473335971
 30
0.0
 11
-226.5167403250378
 21
-41.12958632572904
 31
0.0
  0
LINE
  5
2E2
  8
0
  6
CONTINUOUS
 62
     9
 10
-226.5167403250378
 20
-41.12958632572904
 30
0.0
 11
-225.9808407901402
 21
-43.12958473335971
 31
0.0
  0
LINE
  5
2E3
  8
0
  6
CONTINUOUS
 62
     9
 10
-226.5167403250378
 20
-41.12958632572904
 30
0.0
 11
-226.5167403250378
 21
-43.12958473335971
 31
0.0
  0
ENDBLK
  5
159
  8
0
  0
BLOCK
  8
0
  2
DC_GROUP_91
 70
     0
 10
0.0
 20
0.0
 30
0.0
  3
DC_GROUP_91
  1

  0
LINE
  5
2E4
  8
0
  6
CONTINUOUS
 62
     9
 10
-225.9808407901402
 20
-27.12958791809838
 30
0.0
 11
-226.5167403250378
 21
-29.12958632572904
 31
0.0
  0
LINE
  5
2E5
  8
0
  6
CONTINUOUS
 62
     9
 10
-226.5167403250378
 20
-29.12958632572904
 30
0.0
 11
-227.0526398599354
 21
-27.12958791809838
 31
0.0
  0
LINE
  5
2E6
  8
0
  6
CONTINUOUS
 62
     9
 10
-226.5167403250378
 20
-29.12958632572904
 30
0.0
 11
-226.5167403250378
 21
-27.12958791809838
 31
0.0
  0
ENDBLK
  5
15C
  8
0
  0
BLOCK
  8
0
  2
DC_GROUP_92
 70
     0
 10
0.0
 20
0.0
 30
0.0
  3
DC_GROUP_92
  1

  0
LINE
  5
2E7
  8
0
  6
CONTINUOUS
 62
     7
 10
-148.8018096213694
 20
-93.45458327397122
 30
0.0
 11
-137.1926047157713
 21
-107.5017770392782
 31
0.0
  0
LINE
  5
2E8
  8
0
  6
CONTINUOUS
 62
     7
 10
-137.1926047157713
 20
-107.5017770392782
 30
0.0
 11
-118.369723427325
 21
-107.5017770392782
 31
0.0
  0
INSERT
  5
2E9
  8
0
  6
CONTINUOUS
  2
DC_GROUP_93
 10
0.0
 20
0.0
 30
0.0
  0
TEXT
  5
2EA
  8
0
 62
     7
 10
-137.569723427325
 20
-107.5017770392782
 30
0.0
 40
4.0
  1
Ｍ10×20
 41
0.703125
  7
FDASTYLE1
 72
     5
 11
-119.569723427325
 21
-107.5017770392782
 31
0.0
  0
ENDBLK
  5
15F
  8
0
  0
BLOCK
  8
0
  2
DC_GROUP_93
 70
     0
 10
0.0
 20
0.0
 30
0.0
  3
DC_GROUP_93
  1

  0
LINE
  5
2EB
  8
0
  6
CONTINUOUS
 62
     7
 10
-147.940807339228
 20
-95.33762788634131
 30
0.0
 11
-148.8018096213694
 21
-93.45458327397122
 31
0.0
  0
LINE
  5
2EC
  8
0
  6
CONTINUOUS
 62
     7
 10
-148.8018096213694
 20
-93.45458327397122
 30
0.0
 11
-147.114635700439
 21
-94.65484412168767
 31
0.0
  0
LINE
  5
2ED
  8
0
  6
CONTINUOUS
 62
     7
 10
-148.8018096213694
 20
-93.45458327397122
 30
0.0
 11
-147.5277215198335
 21
-94.99623600401449
 31
0.0
  0
ENDBLK
  5
162
  8
0
  0
BLOCK
  8
0
  2
DC_GROUP_94
 70
     0
 10
0.0
 20
0.0
 30
0.0
  3
DC_GROUP_94
  1

  0
LINE
  5
2EE
  8
0
  6
CONTINUOUS
 62
     9
 10
-148.8018096213694
 20
-99.23393595247211
 30
0.0
 11
-148.8018096213694
 21
-107.5030101578602
 31
0.0
  0
LINE
  5
2EF
  8
0
  6
CONTINUOUS
 62
     9
 10
-196.3018096213694
 20
-76.95458327397122
 30
0.0
 11
-196.3018096213694
 21
-107.5030101578602
 31
0.0
  0
LINE
  5
2F0
  8
0
  6
CONTINUOUS
 62
     9
 10
-196.3018096213694
 20
-106.5030101578602
 30
0.0
 11
-148.8018096213694
 21
-106.5030101578602
 31
0.0
  0
INSERT
  5
2F1
  8
0
  6
CONTINUOUS
  2
DC_GROUP_95
 10
0.0
 20
0.0
 30
0.0
  0
INSERT
  5
2F2
  8
0
  6
CONTINUOUS
  2
DC_GROUP_96
 10
0.0
 20
0.0
 30
0.0
  0
TEXT
  5
2F3
  8
0
 62
     7
 10
-178.9518096213694
 20
-105.5030101578602
 30
0.0
 40
4.0
  1
47.5
 41
0.8000000000000007
  7
FDASTYLE1
 72
     5
 11
-166.1518096213694
 21
-105.5030101578602
 31
0.0
  0
ENDBLK
  5
165
  8
0
  0
BLOCK
  8
0
  2
DC_GROUP_95
 70
     0
 10
0.0
 20
0.0
 30
0.0
  3
DC_GROUP_95
  1

  0
LINE
  5
2F4
  8
0
  6
CONTINUOUS
 62
     9
 10
-194.3018112137387
 20
-107.0389096927578
 30
0.0
 11
-196.3018096213694
 21
-106.5030101578602
 31
0.0
  0
LINE
  5
2F5
  8
0
  6
CONTINUOUS
 62
     9
 10
-196.3018096213694
 20
-106.5030101578602
 30
0.0
 11
-194.3018112137387
 21
-105.9671106229626
 31
0.0
  0
LINE
  5
2F6
  8
0
  6
CONTINUOUS
 62
     9
 10
-196.3018096213694
 20
-106.5030101578602
 30
0.0
 11
-194.3018112137387
 21
-106.5030101578602
 31
0.0
  0
ENDBLK
  5
168
  8
0
  0
BLOCK
  8
0
  2
DC_GROUP_96
 70
     0
 10
0.0
 20
0.0
 30
0.0
  3
DC_GROUP_96
  1

  0
LINE
  5
2F7
  8
0
  6
CONTINUOUS
 62
     9
 10
-150.8018080290001
 20
-105.9671106229626
 30
0.0
 11
-148.8018096213694
 21
-106.5030101578602
 31
0.0
  0
LINE
  5
2F8
  8
0
  6
CONTINUOUS
 62
     9
 10
-148.8018096213694
 20
-106.5030101578602
 30
0.0
 11
-150.8018080290001
 21
-107.0389096927578
 31
0.0
  0
LINE
  5
2F9
  8
0
  6
CONTINUOUS
 62
     9
 10
-148.8018096213694
 20
-106.5030101578602
 30
0.0
 11
-150.8018080290001
 21
-106.5030101578602
 31
0.0
  0
ENDBLK
  5
16B
  8
0
  0
BLOCK
  8
0
  2
DC_GROUP_97
 70
     0
 10
0.0
 20
0.0
 30
0.0
  3
DC_GROUP_97
  1

  0
LINE
  5
2FA
  8
0
  6
CONTINUOUS
 62
     9
 10
162.7385017050752
 20
37.86668099299655
 30
0.0
 11
162.7385017050752
 21
47.58421672555944
 31
0.0
  0
LINE
  5
2FB
  8
0
  6
CONTINUOUS
 62
     9
 10
83.73850170507524
 20
38.21143235102878
 30
0.0
 11
83.73850170507524
 21
47.58421672555944
 31
0.0
  0
LINE
  5
2FC
  8
0
  6
CONTINUOUS
 62
     9
 10
83.73850170507524
 20
46.58421672555944
 30
0.0
 11
162.7385017050752
 21
46.58421672555944
 31
0.0
  0
INSERT
  5
2FD
  8
0
  6
CONTINUOUS
  2
DC_GROUP_98
 10
0.0
 20
0.0
 30
0.0
  0
INSERT
  5
2FE
  8
0
  6
CONTINUOUS
  2
DC_GROUP_99
 10
0.0
 20
0.0
 30
0.0
  0
TEXT
  5
2FF
  8
0
 62
     7
 10
115.2385017050752
 20
47.58421672555944
 30
0.0
 40
4.0
  1
PCD79
 41
0.8000000000000007
  7
FDASTYLE1
 72
     5
 11
131.2385017050752
 21
47.58421672555944
 31
0.0
  0
ENDBLK
  5
16E
  8
0
  0
BLOCK
  8
0
  2
DC_GROUP_98
 70
     0
 10
0.0
 20
0.0
 30
0.0
  3
DC_GROUP_98
  1

  0
LINE
  5
300
  8
0
  6
CONTINUOUS
 62
     9
 10
85.73850011270591
 20
46.04831719066183
 30
0.0
 11
83.73850170507524
 21
46.58421672555944
 31
0.0
  0
LINE
  5
301
  8
0
  6
CONTINUOUS
 62
     9
 10
83.73850170507524
 20
46.58421672555944
 30
0.0
 11
85.73850011270591
 21
47.12011626045705
 31
0.0
  0
LINE
  5
302
  8
0
  6
CONTINUOUS
 62
     9
 10
83.73850170507524
 20
46.58421672555944
 30
0.0
 11
85.73850011270591
 21
46.58421672555944
 31
0.0
  0
ENDBLK
  5
171
  8
0
  0
BLOCK
  8
0
  2
DC_GROUP_99
 70
     0
 10
0.0
 20
0.0
 30
0.0
  3
DC_GROUP_99
  1

  0
LINE
  5
303
  8
0
  6
CONTINUOUS
 62
     9
 10
160.7385032974445
 20
47.12011626045705
 30
0.0
 11
162.7385017050752
 21
46.58421672555944
 31
0.0
  0
LINE
  5
304
  8
0
  6
CONTINUOUS
 62
     9
 10
162.7385017050752
 20
46.58421672555944
 30
0.0
 11
160.7385032974445
 21
46.04831719066183
 31
0.0
  0
LINE
  5
305
  8
0
  6
CONTINUOUS
 62
     9
 10
162.7385017050752
 20
46.58421672555944
 30
0.0
 11
160.7385032974445
 21
46.58421672555944
 31
0.0
  0
ENDBLK
  5
174
  8
0
  0
BLOCK
  8
0
  2
DC_GROUP_100
 70
     0
 10
0.0
 20
0.0
 30
0.0
  3
DC_GROUP_100
  1

  0
LINE
  5
306
  8
0
  6
CONTINUOUS
 62
     7
 10
164.373866946688
 20
34.17896565005635
 30
0.0
 11
229.8356688651967
 21
122.6580290537888
 31
0.0
  0
LINE
  5
307
  8
0
  6
CONTINUOUS
 62
     7
 10
229.8356688651967
 20
122.6580290537888
 30
0.0
 11
249.0356688651967
 21
122.6580290537888
 31
0.0
  0
INSERT
  5
308
  8
0
  6
CONTINUOUS
  2
DC_GROUP_101
 10
0.0
 20
0.0
 30
0.0
  0
TEXT
  5
309
  8
0
 62
     7
 10
229.8356688651967
 20
122.6580290537888
 30
0.0
 40
4.0
  1
2-φ6.2
 41
0.7492195629552554
  7
FDASTYLE1
 72
     5
 11
248.416314026487
 21
122.6580290537888
 31
0.0
  0
ENDBLK
  5
177
  8
0
  0
BLOCK
  8
0
  2
DC_GROUP_101
 70
     0
 10
0.0
 20
0.0
 30
0.0
  3
DC_GROUP_101
  1

  0
LINE
  5
30A
  8
0
  6
CONTINUOUS
 62
     7
 10
165.9942109044848
 20
35.46802243719193
 30
0.0
 11
164.373866946688
 21
34.17896565005635
 31
0.0
  0
LINE
  5
30B
  8
0
  6
CONTINUOUS
 62
     7
 10
164.373866946688
 20
34.17896565005635
 30
0.0
 11
165.1325947493425
 21
36.10549466969446
 31
0.0
  0
LINE
  5
30C
  8
0
  6
CONTINUOUS
 62
     7
 10
164.373866946688
 20
34.17896565005635
 30
0.0
 11
165.5634028269136
 21
35.7867585534432
 31
0.0
  0
ENDBLK
  5
17A
  8
0
  0
ENDSEC
  0
SECTION
  2
ENTITIES
  0
LINE
  5
30D
  8
LAYER0002
  6
CONTINUOUS
 62
     3
 10
-282.531429682114
 20
-190.0
 30
0.0
 11
-282.531429682114
 21
190.0
 31
0.0
  0
LINE
  5
30E
  8
LAYER0002
  6
CONTINUOUS
 62
     3
 10
271.468570317886
 20
-190.0
 30
0.0
 11
271.468570317886
 21
190.0
 31
0.0
  0
LINE
  5
30F
  8
LAYER0002
  6
CONTINUOUS
 62
     3
 10
-282.531429682114
 20
-190.0
 30
0.0
 11
271.468570317886
 21
-190.0
 31
0.0
  0
LINE
  5
310
  8
LAYER0002
  6
CONTINUOUS
 62
     3
 10
-282.531429682114
 20
189.9999999999999
 30
0.0
 11
271.468570317886
 21
189.9999999999999
 31
0.0
  0
LINE
  5
311
  8
LAYER0002
  6
CONTINUOUS
 62
     3
 10
91.46857031788603
 20
-190.0
 30
0.0
 11
91.46857031788603
 21
-130.0
 31
0.0
  0
LINE
  5
312
  8
LAYER0002
  6
CONTINUOUS
 62
     3
 10
91.46857031788603
 20
-176.0
 30
0.0
 11
271.468570317886
 21
-176.0
 31
0.0
  0
LINE
  5
313
  8
LAYER0002
  6
CONTINUOUS
 62
     3
 10
140.468570317886
 20
-162.0
 30
0.0
 11
271.468570317886
 21
-162.0
 31
0.0
  0
LINE
  5
314
  8
LAYER0002
  6
CONTINUOUS
 62
     3
 10
140.468570317886
 20
-148.0
 30
0.0
 11
271.468570317886
 21
-148.0
 31
0.0
  0
LINE
  5
315
  8
LAYER0002
  6
CONTINUOUS
 62
     3
 10
140.468570317886
 20
-138.0
 30
0.0
 11
271.468570317886
 21
-138.0
 31
0.0
  0
LINE
  5
316
  8
LAYER0002
  6
CONTINUOUS
 62
     3
 10
140.468570317886
 20
-176.0
 30
0.0
 11
140.468570317886
 21
-130.0
 31
0.0
  0
LINE
  5
317
  8
LAYER0002
  6
CONTINUOUS
 62
     3
 10
249.468570317886
 20
-176.0
 30
0.0
 11
249.468570317886
 21
-130.0
 31
0.0
  0
LINE
  5
318
  8
LAYER0002
  6
CONTINUOUS
 62
     3
 10
165.468570317886
 20
-190.0
 30
0.0
 11
165.468570317886
 21
-176.0
 31
0.0
  0
LINE
  5
319
  8
LAYER0002
  6
CONTINUOUS
 62
     3
 10
256.468570317886
 20
-188.0
 30
0.0
 11
266.468570317886
 21
-188.0
 31
0.0
  0
LINE
  5
31A
  8
LAYER0002
  6
CONTINUOUS
 62
     3
 10
261.468570317886
 20
-178.0
 30
0.0
 11
256.468570317886
 21
-188.0
 31
0.0
  0
LINE
  5
31B
  8
LAYER0002
  6
CONTINUOUS
 62
     3
 10
261.468570317886
 20
-178.0
 30
0.0
 11
266.468570317886
 21
-188.0
 31
0.0
  0
LINE
  5
31C
  8
LAYER0002
  6
CONTINUOUS
 62
     3
 10
91.46857031788603
 20
-130.0
 30
0.0
 11
271.468570317886
 21
-130.0
 31
0.0
  0
LINE
  5
31D
  8
LAYER0002
  6
CONTINUOUS
 62
     3
 10
220.468570317886
 20
-176.0
 30
0.0
 11
220.468570317886
 21
-148.0
 31
0.0
  0
LINE
  5
31E
  8
LAYER0002
  6
CONTINUOUS
 62
     4
 10
99.46857031788602
 20
-172.0
 30
0.0
 11
99.46857031788602
 21
-130.0
 31
0.0
  0
LINE
  5
31F
  8
LAYER0002
  6
CONTINUOUS
 62
     4
 10
103.468570317886
 20
-172.0
 30
0.0
 11
103.468570317886
 21
-130.0
 31
0.0
  0
LINE
  5
320
  8
LAYER0002
  6
CONTINUOUS
 62
     4
 10
115.968570317886
 20
-176.0
 30
0.0
 11
115.968570317886
 21
-130.0
 31
0.0
  0
LINE
  5
321
  8
LAYER0002
  6
CONTINUOUS
 62
     4
 10
91.46857031788603
 20
-137.0
 30
0.0
 11
140.468570317886
 21
-137.0
 31
0.0
  0
LINE
  5
322
  8
LAYER0002
  6
CONTINUOUS
 62
     4
 10
91.46857031788603
 20
-144.0
 30
0.0
 11
140.468570317886
 21
-144.0
 31
0.0
  0
LINE
  5
323
  8
LAYER0002
  6
CONTINUOUS
 62
     4
 10
91.46857031788603
 20
-165.0
 30
0.0
 11
140.468570317886
 21
-165.0
 31
0.0
  0
LINE
  5
324
  8
LAYER0002
  6
CONTINUOUS
 62
     4
 10
91.46857031788603
 20
-172.0
 30
0.0
 11
140.468570317886
 21
-172.0
 31
0.0
  0
LINE
  5
325
  8
LAYER0002
  6
CONTINUOUS
 62
     4
 10
249.468570317886
 20
-166.0
 30
0.0
 11
271.468570317886
 21
-166.0
 31
0.0
  0
LINE
  5
326
  8
LAYER0002
  6
CONTINUOUS
 62
     4
 10
147.468570317886
 20
-139.5
 30
0.0
 11
147.468570317886
 21
-130.0
 31
0.0
  0
LINE
  5
327
  8
LAYER0002
  6
CONTINUOUS
 62
     4
 10
196.468570317886
 20
-148.0
 30
0.0
 11
196.468570317886
 21
-146.5
 31
0.0
  0
LINE
  5
328
  8
LAYER0002
  6
CONTINUOUS
 62
     4
 10
220.468570317886
 20
-148.0
 30
0.0
 11
220.468570317886
 21
-146.5
 31
0.0
  0
LINE
  5
329
  8
LAYER0002
  6
CONTINUOUS
 62
     4
 10
237.468570317886
 20
-148.0
 30
0.0
 11
237.468570317886
 21
-146.5
 31
0.0
  0
LINE
  5
32A
  8
LAYER0002
  6
CONTINUOUS
 62
     4
 10
196.468570317886
 20
-139.5
 30
0.0
 11
196.468570317886
 21
-130.0
 31
0.0
  0
LINE
  5
32B
  8
LAYER0002
  6
CONTINUOUS
 62
     4
 10
220.468570317886
 20
-139.5
 30
0.0
 11
220.468570317886
 21
-130.0
 31
0.0
  0
LINE
  5
32C
  8
LAYER0002
  6
CONTINUOUS
 62
     4
 10
237.468570317886
 20
-139.5
 30
0.0
 11
237.468570317886
 21
-130.0
 31
0.0
  0
LINE
  5
32D
  8
LAYER0002
  6
CONTINUOUS
 62
     4
 10
91.46857031788603
 20
-151.0
 30
0.0
 11
140.468570317886
 21
-151.0
 31
0.0
  0
LINE
  5
32E
  8
LAYER0002
  6
CONTINUOUS
 62
     4
 10
91.46857031788603
 20
-158.0
 30
0.0
 11
140.468570317886
 21
-158.0
 31
0.0
  0
LINE
  5
32F
  8
LAYER0002
  6
CONTINUOUS
 62
     4
 10
95.46857031788602
 20
-130.5
 30
0.0
 11
92.46857031788603
 21
-136.5
 31
0.0
  0
LINE
  5
330
  8
LAYER0002
  6
CONTINUOUS
 62
     4
 10
95.46857031788602
 20
-130.5
 30
0.0
 11
98.46857031788602
 21
-136.5
 31
0.0
  0
LINE
  5
331
  8
LAYER0002
  6
CONTINUOUS
 62
     4
 10
92.46857031788603
 20
-136.5
 30
0.0
 11
98.46857031788602
 21
-136.5
 31
0.0
  0
LINE
  5
332
  8
LAYER0002
  6
CONTINUOUS
 62
     4
 10
95.46857031788602
 20
-158.5
 30
0.0
 11
92.46857031788603
 21
-164.5
 31
0.0
  0
LINE
  5
333
  8
LAYER0002
  6
CONTINUOUS
 62
     4
 10
95.46857031788602
 20
-158.5
 30
0.0
 11
98.46857031788602
 21
-164.5
 31
0.0
  0
LINE
  5
334
  8
LAYER0002
  6
CONTINUOUS
 62
     4
 10
92.46857031788603
 20
-164.5
 30
0.0
 11
98.46857031788602
 21
-164.5
 31
0.0
  0
LINE
  5
335
  8
LAYER0002
  6
CONTINUOUS
 62
     4
 10
95.46857031788602
 20
-151.5
 30
0.0
 11
92.46857031788603
 21
-157.5
 31
0.0
  0
LINE
  5
336
  8
LAYER0002
  6
CONTINUOUS
 62
     4
 10
95.46857031788602
 20
-151.5
 30
0.0
 11
98.46857031788602
 21
-157.5
 31
0.0
  0
LINE
  5
337
  8
LAYER0002
  6
CONTINUOUS
 62
     4
 10
92.46857031788603
 20
-157.5
 30
0.0
 11
98.46857031788602
 21
-157.5
 31
0.0
  0
LINE
  5
338
  8
LAYER0002
  6
CONTINUOUS
 62
     4
 10
95.46857031788602
 20
-144.5
 30
0.0
 11
92.46857031788603
 21
-150.5
 31
0.0
  0
LINE
  5
339
  8
LAYER0002
  6
CONTINUOUS
 62
     4
 10
95.46857031788602
 20
-144.5
 30
0.0
 11
98.46857031788602
 21
-150.5
 31
0.0
  0
LINE
  5
33A
  8
LAYER0002
  6
CONTINUOUS
 62
     4
 10
92.46857031788603
 20
-150.5
 30
0.0
 11
98.46857031788602
 21
-150.5
 31
0.0
  0
LINE
  5
33B
  8
LAYER0002
  6
CONTINUOUS
 62
     4
 10
95.46857031788602
 20
-137.5
 30
0.0
 11
92.46857031788603
 21
-143.5
 31
0.0
  0
LINE
  5
33C
  8
LAYER0002
  6
CONTINUOUS
 62
     4
 10
95.46857031788602
 20
-137.5
 30
0.0
 11
98.46857031788602
 21
-143.5
 31
0.0
  0
LINE
  5
33D
  8
LAYER0002
  6
CONTINUOUS
 62
     4
 10
92.46857031788603
 20
-143.5
 30
0.0
 11
98.46857031788602
 21
-143.5
 31
0.0
  0
LINE
  5
33E
  8
LAYER0002
  6
CONTINUOUS
 62
     4
 10
167.1352369845526
 20
-176.0
 30
0.0
 11
167.1352369845526
 21
-162.0
 31
0.0
  0
LINE
  5
33F
  8
LAYER0002
  6
CONTINUOUS
 62
     4
 10
193.8019036512193
 20
-176.0
 30
0.0
 11
193.8019036512193
 21
-161.9509415757253
 31
0.0
  0
LINE
  5
340
  8
LAYER0002
  6
CONTINUOUS
 62
     4
 10
207.1352369845526
 20
-167.5
 30
0.0
 11
207.1352369845526
 21
-161.9509415757253
 31
0.0
  0
LINE
  5
341
  8
LAYER0002
  6
CONTINUOUS
 62
     4
 10
220.468570317886
 20
-155.0
 30
0.0
 11
249.468570317886
 21
-155.0
 31
0.0
  0
LINE
  5
342
  8
LAYER0002
  6
CONTINUOUS
 62
     4
 10
140.468570317886
 20
-166.0
 30
0.0
 11
220.468570317886
 21
-166.0
 31
0.0
  0
TEXT
  5
344
  8
LAYER0002
 62
     7
 10
141.4623284653607
 20
-130.821188728956
 30
0.0
 40
2.44248928
  1
符号
 41
0.8
  7
FDASTYLE0
  0
TEXT
  5
345
  8
LAYER0002
 62
     7
 10
156.8827014397918
 20
-135.8245525019963
 30
0.0
 40
4.0
  1
品       名
 41
0.7333635129017656
  7
FDASTYLE1
 72
     5
 11
184.4571695248982
 21
-135.8245525019963
 31
0.0
  0
TEXT
  5
346
  8
LAYER0002
 62
     7
 10
201.7017267591956
 20
-135.8245525019963
 30
0.0
 40
4.0
  1
材  料
 41
0.6611570247933895
  7
FDASTYLE1
 72
     5
 11
213.3380903955593
 21
-135.8245525019963
 31
0.0
  0
TEXT
  5
347
  8
LAYER0002
 62
     7
 10
223.984632002741
 20
-135.8245525019963
 30
0.0
 40
4.0
  1
個 数
 41
0.6228373702422144
  7
FDASTYLE1
 72
     5
 11
232.4552202380351
 21
-135.8245525019963
 31
0.0
  0
TEXT
  5
348
  8
LAYER0002
 62
     7
 10
240.190381270774
 20
-133.5649080050572
 30
0.0
 40
2.5
  1
単重量
 41
0.5555555555555556
  7
FDASTYLE1
 72
     5
 11
245.190381270774
 21
-133.5649080050572
 31
0.0
  0
TEXT
  5
349
  8
LAYER0002
 62
     7
 10
239.1775219415219
 20
-137.3631304897525
 30
0.0
 40
2.5
  1
(kg)
 41
0.8
  7
FDASTYLE1
 72
     5
 11
247.1775219415219
 21
-137.3631304897525
 31
0.0
  0
TEXT
  5
34A
  8
LAYER0002
 62
     7
 10
253.6107673833638
 20
-135.8245525019963
 30
0.0
 40
4.0
  1
記  事
 41
0.6611570247933878
  7
FDASTYLE1
 72
     5
 11
265.2471310197274
 21
-135.8245525019963
 31
0.0
  0
TEXT
  5
34B
  8
LAYER0002
 62
     7
 10
253.3136497730505
 20
-165.4873041997729
 30
0.0
 40
3.0
  1
コード番号
 41
0.5555555555555556
  7
FDASTYLE1
 72
     5
 11
263.3136497730505
 21
-165.4873041997729
 31
0.0
  0
TEXT
  5
34C
  8
LAYER0002
 62
     7
 10
96.38056233371772
 20
-175.1879010540338
 30
0.0
 40
2.5
  1
訂 正 来 歴
 41
0.64431295200526
  7
FDASTYLE1
 72
     5
 11
108.9446648978203
 21
-175.1879010540338
 31
0.0
  0
TEXT
  5
34D
  8
LAYER0002
 62
     7
 10
120.358905164651
 20
-175.2166697391651
 30
0.0
 40
2.5
  1
工 事 番 号
 41
0.64431295200526
  7
FDASTYLE1
 72
     5
 11
132.9230077287536
 21
-175.2166697391651
 31
0.0
  0
TEXT
  5
34E
  8
LAYER0002
 62
     7
 10
93.40257066448891
 20
-165.9634530565915
 30
0.0
 40
1.90819475
  1
記号
 41
0.8
  7
FDASTYLE0
  0
TEXT
  5
34F
  8
LAYER0002
 62
     7
 10
99.34195772464781
 20
-165.9634530565915
 30
0.0
 40
1.90819475
  1
理由
 41
0.8
  7
FDASTYLE0
  0
TEXT
  5
350
  8
LAYER0002
 62
     7
 10
106.0879371088703
 20
-169.8786046700178
 30
0.0
 40
3.0
  1
日 付
 41
0.6228373702422138
  7
FDASTYLE1
 72
     5
 11
112.4408782853409
 21
-169.8786046700178
 31
0.0
  0
TEXT
  5
351
  8
LAYER0002
 62
     7
 10
147.9167392998512
 20
-165.7187911464244
 30
0.0
 40
3.0
  1
承   認
 41
0.6858710562414269
  7
FDASTYLE1
 72
     5
 11
159.0278504109623
 21
-165.7187911464244
 31
0.0
  0
TEXT
  5
352
  8
LAYER0002
 62
     7
 10
174.33179835112
 20
-165.4873041997729
 30
0.0
 40
3.0
  1
検   図
 41
0.6858710562414269
  7
FDASTYLE1
 72
     5
 11
185.4429094622311
 21
-165.4873041997729
 31
0.0
  0
TEXT
  5
353
  8
LAYER0002
 62
     7
 10
195.9457624162611
 20
-165.4873041997729
 30
0.0
 40
3.0
  1
担  当
 41
0.6611570247933879
  7
FDASTYLE1
 72
     5
 11
204.6730351435338
 21
-165.4873041997729
 31
0.0
  0
TEXT
  5
354
  8
LAYER0002
 62
     7
 10
209.1456278019972
 20
-165.4873041997729
 30
0.0
 40
3.0
  1
製  図
 41
0.6611570247933879
  7
FDASTYLE1
 72
     5
 11
217.8729005292699
 21
-165.4873041997729
 31
0.0
  0
TEXT
  5
355
  8
LAYER0002
 62
     7
 10
221.4148075483059
 20
-153.2184960272417
 30
0.0
 40
3.0
  1
作図
 41
0.5555555555555556
  7
FDASTYLE1
 72
     5
 11
225.4148075483059
 21
-153.2184960272417
 31
0.0
  0
TEXT
  5
356
  8
LAYER0002
 62
     7
 10
222.5722422815636
 20
-160.2371566401815
 30
0.0
 40
4.0
  1
第 三 角 法
 41
0.6443129520052602
  7
FDASTYLE1
 72
     5
 11
242.6748063841278
 21
-160.2371566401815
 31
0.0
  0
TEXT
  5
357
  8
LAYER0002
 62
     7
 10
221.877781441609
 20
-166.413251986379
 30
0.0
 40
3.0
  1
尺度
 41
0.5555555555555556
  7
FDASTYLE1
 72
     5
 11
225.877781441609
 21
-166.413251986379
 31
0.0
  0
TEXT
  5
359
  8
LAYER0002
 62
     3
 10
99.84772468792002
 20
-185.9272077185017
 30
0.0
 40
7.0
  1
株式会社 野村製作所
 41
0.4314821561072638
  7
FDASTYLE2
 72
     5
 11
140.1938951768858
 21
-185.9272077185017
 31
0.0
  0
TEXT
  5
35B
  8
LAYER0002
 62
     3
 10
178.0803921113025
 20
-187.1216685584563
 30
0.0
 40
8.0
  1
２－
 41
0.7311772135933162
  7
FDASTYLE3
 72
     5
 11
191.270829044526
 21
-187.1216685584563
 31
0.0
  0
TEXT
  5
35C
  8
LAYER0002
 62
     6
 10
194.9923497357093
 20
-187.1216685584563
 30
0.0
 40
8.0
  1
9310046
 41
0.7780320000000002
  7
FDASTYLE1
 72
     5
 11
238.5621417357093
 21
-187.1216685584563
 31
0.0
  0
TEXT
  5
35D
  8
LAYER0002
 62
     6
 10
225.583783018673
 20
-146.1941968197806
 30
0.0
 40
4.0
  1
一式
 41
0.4861111111111102
  7
FDASTYLE1
 72
     5
 11
230.2504496853397
 21
-146.1941968197806
 31
0.0
  0
TEXT
  5
35E
  8
LAYER0002
 62
     6
 10
157.3422528693647
 20
-145.3589000228561
 30
0.0
 40
5.0
  1
外　形　図
 41
0.4861111111111114
  7
FDASTYLE1
 72
     5
 11
171.9255862026981
 21
-145.3589000228561
 31
0.0
  0
TEXT
  5
35F
  8
LAYER0002
 62
     4
 10
227.8711856594712
 20
-153.3662384140306
 30
0.0
 40
3.0
  1
1993.7.22
 41
0.7000000000000002
  7
FDASTYLE1
 72
     5
 11
246.7711856594712
 21
-153.3662384140306
 31
0.0
  0
TEXT
  5
360
  8
LAYER0002
 62
     4
 10
233.7697492085259
 20
-172.297487439201
 30
0.0
 40
3.0
  1
1/1
 41
0.7000000000000013
  7
FDASTYLE1
 72
     5
 11
240.0697492085259
 21
-172.297487439201
 31
0.0
  0
TEXT
  5
361
  8
0
 62
     6
 10
143.4009131816014
 20
-154.3580193026319
 30
0.0
 40
5.0
  1
日鋼プレシジォン
 41
0.5555555555555554
  7
FDASTYLE1
 72
     5
 11
170.0675798482681
 21
-154.3580193026319
 31
0.0
  0
TEXT
  5
362
  8
0
 62
     6
 10
152.1956421554559
 20
-160.926795036144
 30
0.0
 40
5.0
  1
MO2-10型 チャック
 41
0.681656804733728
  7
FDASTYLE1
 72
     5
 11
196.5033344631482
 21
-160.926795036144
 31
0.0
  0
TEXT
  5
363
  8
0
 62
     6
 10
-89.47319853369341
 20
-169.596066483211
 30
0.0
 40
4.319999885559082
  1
質 量     　　　　　　　　                  32 ｋg
 41
0.8689686606115008
  7
FDASTYLE1
 72
     5
 11
65.18931545942643
 21
-169.596066483211
 31
0.0
  0
TEXT
  5
364
  8
0
 62
     6
 10
-89.47319853369339
 20
-177.5794282996172
 30
0.0
 40
4.319999885559082
  1
ｱﾝバﾗﾝｽ量              
 41
0.9043987242105473
  7
FDASTYLE1
 72
     5
 11
-5.863347492781429
 21
-177.5794282996172
 31
0.0
  0
TEXT
  5
365
  8
0
 62
     6
 10
24.21702982123748
 20
-177.0394283139223
 30
0.0
 40
3.239999914169311
  1
外周ﾆﾃ
 41
0.828320304898636
  7
FDASTYLE1
 72
     5
 11
36.0255637750531
 21
-177.0394283139223
 31
0.0
  0
TEXT
  5
366
  8
0
 62
     6
 10
40.67983949120895
 20
-177.5794282996172
 30
0.0
 40
4.319999885559082
  1
  6g 以内
 41
0.8672663918961422
  7
FDASTYLE1
 72
     5
 11
68.40461077288919
 21
-177.5794282996172
 31
0.0
  0
TEXT
  5
367
  8
0
 62
     6
 10
-89.44217417303666
 20
-161.6127046668047
 30
0.0
 40
4.319999885559082
  1
慣性モーメント  　 　　　　　　　　　            0.35 ｋg・m
 41
0.806814414582048
  7
FDASTYLE1
 72
     5
 11
66.70545623101491
 21
-161.6127046668047
 31
0.0
  0
TEXT
  5
368
  8
0
 62
     6
 10
65.75256743230122
 20
-158.3727047526354
 30
0.0
 40
2.159999942779541
  1
2
 41
0.8823044666265002
  7
FDASTYLE1
 72
     5
 11
67.65834502972859
 21
-158.3727047526354
 31
0.0
  0
TEXT
  5
369
  8
0
 62
     6
 10
-89.4121281391774
 20
-153.6293428503985
 30
0.0
 40
4.319999885559082
  1
最高使用回転速度 　　　　　　　　                2500 min
 41
0.8124641885043836
  7
FDASTYLE1
 72
     5
 11
65.72302976092531
 21
-153.6293428503985
 31
0.0
  0
TEXT
  5
36A
  8
0
 62
     6
 10
64.76413124561496
 20
-150.3893429362292
 30
0.0
 40
2.159999942779541
  1
-1
 41
0.8878690191782335
  7
FDASTYLE1
 72
     5
 11
68.59972530685639
 21
-150.3893429362292
 31
0.0
  0
TEXT
  5
36B
  8
0
 62
     6
 10
-89.47319853369341
 20
-145.6459993445391
 30
0.0
 40
4.319999885559082
  1
最大静的把握力   　　　　　 　　　　　             ４４．１ ｋN
 41
0.7949512039986547
  7
FDASTYLE1
 72
     5
 11
66.43898707389222
 21
-145.6459993445391
 31
0.0
  0
TEXT
  5
36C
  8
0
 62
     6
 10
-89.39745752874954
 20
-137.6626375281328
 30
0.0
 40
4.319999885559082
  1
許容ｼﾘﾝダ力 
 41
0.7783849477188662
  7
FDASTYLE1
 72
     5
 11
-59.8063761401651
 21
-137.6626375281328
 31
0.0
  0
TEXT
  5
36D
  8
0
 62
     6
 10
35.66578977044479
 20
-137.6626375281328
 30
0.0
 40
4.319999885559082
  1
   ２２ ｋN
 41
0.8114194066533662
  7
FDASTYLE1
 72
     5
 11
65.81164276783825
 21
-137.6626375281328
 31
0.0
  0
TEXT
  5
36E
  8
0
 62
     6
 10
-89.47319853369341
 20
-129.6792757117266
 30
0.0
 40
4.319999885559082
  1
ピｽﾄﾝｽﾄﾛ-ｸ      　　　　　　　　　　         30 mm
 41
0.8773238615485305
  7
FDASTYLE1
 72
     5
 11
66.67640750360822
 21
-129.6792757117266
 31
0.0
  0
TEXT
  5
36F
  8
0
 62
     6
 10
-89.50524971548661
 20
-121.6959138953203
 30
0.0
 40
4.319999885559082
  1
爪ノｽﾄﾛ-ｸ           
 41
0.9125302905674511
  7
FDASTYLE1
 72
     5
 11
-16.97004390038786
 21
-121.6959138953203
 31
0.0
  0
TEXT
  5
370
  8
0
 62
     6
 10
9.528022819122242
 20
-121.1559139096254
 30
0.0
 40
3.239999914169311
  1
（直径ﾆﾃ）
 41
0.7791039992312285
  7
FDASTYLE1
 72
     5
 11
26.69324167546164
 21
-121.1559139096254
 31
0.0
  0
TEXT
  5
371
  8
0
 62
     6
 10
34.53244724210159
 20
-121.6959138953203
 30
0.0
 40
4.319999885559082
  1
   20 mm
 41
0.9329097023343553
  7
FDASTYLE1
 72
     5
 11
66.77380570067257
 21
-121.6959138953203
 31
0.0
  0
TEXT
  5
372
  8
0
 62
     6
 10
-89.43529856268509
 20
-113.7125612341875
 30
0.0
 40
4.319999885559082
  1
仕  様
 41
0.8143452148062844
  7
FDASTYLE1
 72
     5
 11
-73.95622512970266
 21
-113.7125612341875
 31
0.0
  0
TEXT
  5
373
  8
0
 62
     7
 10
251.462967508089
 20
-142.7641187278597
 30
0.0
 40
3.200000047683716
  1
標 準
 41
0.649794934378693
  7
FDASTYLE1
 72
     5
 11
258.532736499477
 21
-142.7641187278597
 31
0.0
  0
TEXT
  5
374
  8
0
 62
     7
 10
-50.38904793313696
 20
51.47998551264987
 30
0.0
 40
4.0
  1
MIN 54
 50
90.0
 41
0.7999999999999998
  7
FDASTYLE1
 72
     5
 11
-50.38904793313696
 21
70.67998551264986
 31
0.0
  0
TEXT
  5
375
  8
0
 62
     7
 10
-184.1937006752639
 20
-125.9236916888462
 30
0.0
 40
4.0
  1
MIN 29
 41
0.8000000000000007
  7
FDASTYLE1
 72
     5
 11
-164.9937006752639
 21
-125.9236916888462
 31
0.0
  0
LINE
  5
376
  8
0
  6
CENTER
 62
     7
 10
-204.6178773982332
 20
31.54541672602877
 30
0.0
 11
-96.12414682335877
 21
31.54541672602877
 31
0.0
  0
LINE
  5
377
  8
0
  6
CENTER
 62
     7
 10
-126.6472075705882
 20
-28.45458327397123
 30
0.0
 11
-93.60145409158423
 21
-28.45458327397123
 31
0.0
  0
LINE
  5
378
  8
0
  6
CENTER
 62
     7
 10
-124.5746978049632
 20
134.5454167260288
 30
0.0
 11
-69.77469475320532
 21
134.5454167260288
 31
0.0
  0
LINE
  5
379
  8
0
  6
CENTER
 62
     7
 10
-124.5746978049632
 20
104.5454167260288
 30
0.0
 11
-69.97469933084204
 21
104.5454167260288
 31
0.0
  0
LINE
  5
37A
  8
0
  6
CENTER
 62
     7
 10
-217.5423512986065
 20
-35.12958632572904
 30
0.0
 11
-161.6034911399241
 21
-35.12958632572904
 31
0.0
  0
LINE
  5
37B
  8
0
  6
CENTER
 62
     7
 10
-13.09181663251934
 20
31.54541672602877
 30
0.0
 11
260.1942932917971
 21
31.54541672602877
 31
0.0
  0
LINE
  5
37C
  8
0
  6
CENTER
 62
     7
 10
-138.3416503196116
 20
71.04541672602876
 30
0.0
 11
-120.6008513694163
 21
71.04541672602876
 31
0.0
  0
LINE
  5
37D
  8
0
  6
CENTER
 62
     7
 10
83.73850170507524
 20
37.21143235102878
 30
0.0
 11
83.73850170507524
 21
25.54541672602877
 31
0.0
  0
LINE
  5
37E
  8
0
  6
CENTER
 62
     7
 10
119.0971061362276
 20
71.04541672602876
 30
0.0
 11
127.7762432886259
 21
71.04541672602876
 31
0.0
  0
LINE
  5
37F
  8
0
  6
CENTER
 62
     7
 10
162.7385017050752
 20
36.86668099299655
 30
0.0
 11
162.7385017050752
 21
25.54541672602877
 31
0.0
  0
LINE
  5
380
  8
0
  6
CENTER
 62
     7
 10
159.5172797962386
 20
15.38201486932762
 30
0.0
 11
155.1777112200394
 21
7.865661612421281
 31
0.0
  0
LINE
  5
381
  8
0
  6
CENTER
 62
     7
 10
91.10127289726805
 20
8.208818582729936
 30
0.0
 11
86.76170432106885
 21
15.72517183963631
 31
0.0
  0
LINE
  5
382
  8
0
  6
CENTER
 62
     7
 10
64.34881576785476
 20
-2.454591608391841
 30
0.0
 11
78.20522623700701
 21
5.54540982211952
 31
0.0
  0
LINE
  5
383
  8
0
  6
CENTER
 62
     7
 10
64.34882612880442
 20
65.54542640929768
 30
0.0
 11
78.20523329433176
 21
57.54542688613483
 31
0.0
  0
LINE
  5
384
  8
0
  6
CENTER
 62
     7
 10
65.4856078401322
 20
89.29837013621793
 30
0.0
 11
86.69881202646984
 21
68.08516773801958
 31
0.0
  0
LINE
  5
385
  8
0
  6
CENTER
 62
     7
 10
65.48559752621331
 20
-26.20754190709065
 30
0.0
 11
86.69880373559981
 21
-4.994337485843605
 31
0.0
  0
LINE
  5
386
  8
0
  6
CENTER
 62
     7
 10
35.61597909070569
 20
124.0454319848178
 30
0.0
 11
88.41598214246351
 21
124.0454319848178
 31
0.0
  0
LINE
  5
387
  8
0
  6
CENTER
 62
     7
 10
109.0630921278151
 20
104.5454319848178
 30
0.0
 11
137.8703888807448
 21
104.5454319848178
 31
0.0
  0
LINE
  5
388
  8
0
  6
CENTER
 62
     7
 10
109.0630921278151
 20
134.5454319848178
 30
0.0
 11
137.8703888807448
 21
134.5454319848178
 31
0.0
  0
LINE
  5
389
  8
0
  6
CENTER
 62
     7
 10
106.8807114515455
 20
-71.45458327397122
 30
0.0
 11
139.616299525276
 21
-71.45458327397122
 31
0.0
  0
LINE
  5
38A
  8
0
  6
CENTER
 62
     7
 10
106.8807114515455
 20
-41.45458327397122
 30
0.0
 11
139.1798066053541
 21
-41.45458327397122
 31
0.0
  0
LINE
  5
38B
  8
0
  6
CENTER
 62
     7
 10
168.2718860274344
 20
57.54541435207207
 30
0.0
 11
182.1282931929617
 21
65.54541387523491
 31
0.0
  0
LINE
  5
38C
  8
0
  6
CENTER
 62
     7
 10
159.7783122834974
 20
68.08516490191246
 30
0.0
 11
180.9915063545907
 21
89.29835718486734
 31
0.0
  0
LINE
  5
38D
  8
0
  6
CENTER
 62
     7
 10
159.7783097847735
 20
-4.994323860143457
 30
0.0
 11
180.9915146454608
 21
-26.20752693269137
 31
0.0
  0
LINE
  5
38E
  8
0
  6
CENTER
 62
     7
 10
168.2718864775093
 20
5.54542617087932
 30
0.0
 11
182.1282936430367
 21
-2.454573352283521
 31
0.0
  0
ARC
  5
38F
  8
0
  6
CENTER
 62
     7
 10
123.2385529432448
 20
31.54541672602877
 30
0.0
 40
60.0
 50
22.35488642701345
 51
37.64510328980762
  0
ARC
  5
390
  8
0
  6
CENTER
 62
     7
 10
123.2385529432448
 20
31.54541672602877
 30
0.0
 40
66.67500305175781
 50
32.08272017315429
 51
57.91727891622929
  0
ARC
  5
391
  8
0
  6
CENTER
 62
     7
 10
123.2385529432448
 20
31.54541672602877
 30
0.0
 40
66.67500305175781
 50
122.0827465832946
 51
147.9172950810858
  0
ARC
  5
392
  8
0
  6
CENTER
 62
     7
 10
123.2385529432448
 20
31.54541672602877
 30
0.0
 40
66.67500305175781
 50
212.0827049189142
 51
237.9172534167055
  0
ARC
  5
393
  8
0
  6
CENTER
 62
     7
 10
123.2385529432448
 20
31.54541672602877
 30
0.0
 40
66.67500305175781
 50
302.0827279139599
 51
327.9172798268457
  0
ARC
  5
394
  8
0
  6
CENTER
 62
     7
 10
123.2385529432448
 20
31.54541672602877
 30
0.0
 40
60.0
 50
142.3549119644325
 51
157.6451237045848
  0
ARC
  5
395
  8
0
  6
CENTER
 62
     7
 10
123.2385529432448
 20
31.54541672602877
 30
0.0
 40
60.0
 50
202.3548762954152
 51
217.6450880355675
  0
ARC
  5
396
  8
0
  6
CENTER
 62
     7
 10
123.2385529432448
 20
31.54541672602877
 30
0.0
 40
60.0
 50
322.3548967101925
 51
337.6451152805338
  0
LINE
  5
397
  8
0
  6
CENTER
 62
     7
 10
123.2385742976564
 20
162.872855080521
 30
0.0
 11
123.2385742976564
 21
54.49941107184918
 31
0.0
  0
LINE
  5
398
  8
0
  6
CENTER
 62
     7
 10
123.2385742976564
 20
44.82528464860616
 30
0.0
 11
123.2385742976564
 21
-98.43337108342772
 31
0.0
  0
LINE
  5
399
  8
0
  6
CENTER
 62
     7
 10
-148.8018096213694
 20
-63.07972402558646
 30
0.0
 11
-148.8018096213694
 21
-98.23393595247211
 31
0.0
  0
LINE
  5
39A
  8
0
  6
CONTINUOUS
 62
     7
 10
-110.3235333407785
 20
80.5454150180033
 30
0.0
 11
-109.323532279189
 21
79.5454139564138
 31
0.0
  0
LINE
  5
39B
  8
0
  6
CONTINUOUS
 62
     7
 10
-100.0018141990061
 20
91.54541672602878
 30
0.0
 11
-67.42473061135962
 21
91.54541672602878
 31
0.0
  0
LINE
  5
39C
  8
0
  6
DASHED2
 62
     7
 10
-144.5018096213693
 20
-68.4030692036019
 30
0.0
 11
-148.8018096213693
 21
-65.9204630460865
 31
0.0
  0
LINE
  5
39D
  8
0
  6
DASHED2
 62
     7
 10
-143.8018096213694
 20
-73.40306920360186
 30
0.0
 11
-143.8018096213694
 21
-93.40306920360186
 31
0.0
  0
LINE
  5
39E
  8
0
  6
DASHED2
 62
     7
 10
-153.8018096213694
 20
-73.40306920360186
 30
0.0
 11
-143.8018096213694
 21
-73.40306920360186
 31
0.0
  0
LINE
  5
39F
  8
0
  6
DASHED2
 62
     7
 10
-153.1018096213694
 20
-68.40306920360186
 30
0.0
 11
-144.5018096213694
 21
-68.40306920360186
 31
0.0
  0
LINE
  5
3A0
  8
0
  6
DASHED2
 62
     7
 10
-144.5018096213694
 20
-68.40306920360186
 30
0.0
 11
-144.5018096213694
 21
-93.40306920360186
 31
0.0
  0
LINE
  5
3A1
  8
0
  6
DASHED2
 62
     7
 10
-153.1018096213695
 20
-68.4030692036019
 30
0.0
 11
-148.8018096213695
 21
-65.9204630460865
 31
0.0
  0
LINE
  5
3A2
  8
0
  6
DASHED2
 62
     7
 10
-153.8018096213694
 20
-73.40306920360186
 30
0.0
 11
-153.8018096213694
 21
-93.40306920360186
 31
0.0
  0
LINE
  5
3A3
  8
0
  6
DASHED2
 62
     7
 10
-153.1018096213694
 20
-68.40306920360186
 30
0.0
 11
-153.1018096213694
 21
-93.40306920360186
 31
0.0
  0
LINE
  5
3A4
  8
0
  6
DASHED2
 62
     7
 10
60.73854531385022
 20
139.7985905541538
 30
0.0
 11
60.73854531385022
 21
112.0454167260288
 31
0.0
  0
LINE
  5
3A5
  8
0
  6
DASHED2
 62
     7
 10
27.61035622693616
 20
112.0454319848178
 30
0.0
 11
60.73854531385022
 21
112.0454319848178
 31
0.0
  0
LINE
  5
3A6
  8
0
  6
DASHED2
 62
     7
 10
60.73854531385022
 20
133.0454319848178
 30
0.0
 11
85.53487099744397
 21
133.0454319848178
 31
0.0
  0
LINE
  5
3A7
  8
0
  6
DASHED2
 62
     7
 10
60.73854531385022
 20
115.0454319848178
 30
0.0
 11
81.01424111463147
 21
115.0454319848178
 31
0.0
  0
LINE
  5
3A8
  8
0
  6
DASHED2
 62
     7
 10
48.73854531385023
 20
126.4454182519077
 30
0.0
 11
48.73854531385023
 21
121.6454152001499
 31
0.0
  0
LINE
  5
3A9
  8
0
  6
DASHED2
 62
     7
 10
51.43854226209241
 20
127.3454197777866
 30
0.0
 11
51.43854226209241
 21
120.745413674271
 31
0.0
  0
LINE
  5
3AA
  8
0
  6
DASHED2
 62
     7
 10
57.17729653455335
 20
118.3454197777866
 30
0.0
 11
60.2997940931471
 21
118.3454197777866
 31
0.0
  0
LINE
  5
3AB
  8
0
  6
DASHED2
 62
     7
 10
57.17729653455335
 20
129.745413674271
 30
0.0
 11
60.2997940931471
 21
129.745413674271
 31
0.0
  0
LINE
  5
3AC
  8
0
  6
DASHED2
 62
     7
 10
51.43852895923276
 20
120.7453858405302
 30
0.0
 11
48.73852854316299
 21
121.6453858661282
 31
0.0
  0
LINE
  5
3AD
  8
0
  6
DASHED2
 62
     7
 10
51.43855807232312
 20
127.3453942754965
 30
0.0
 11
48.73855403731368
 21
126.4453930435854
 31
0.0
  0
LINE
  5
3AE
  8
0
  6
DASHED2
 62
     7
 10
52.43854226209241
 20
126.7907475365757
 30
0.0
 11
52.43854226209241
 21
121.249937905228
 31
0.0
  0
LINE
  5
3AF
  8
0
  6
DASHED2
 62
     7
 10
56.73854531385023
 20
128.495413674271
 30
0.0
 11
56.73854531385023
 21
119.5954197777866
 31
0.0
  0
LINE
  5
3B0
  8
0
  6
DASHED2
 62
     7
 10
57.48243416883069
 20
126.9390782250522
 30
0.0
 11
59.99465645886976
 21
126.9390782250522
 31
0.0
  0
LINE
  5
3B1
  8
0
  6
DASHED2
 62
     7
 10
57.48243416883069
 20
121.1517552270053
 30
0.0
 11
59.99465645886976
 21
121.1517552270053
 31
0.0
  0
ARC
  5
3B2
  8
0
  6
DASHED2
 62
     7
 10
51.43854226209241
 20
124.0454319848178
 30
0.0
 40
3.299999952316284
 50
73.48282241201397
 51
89.99998201391068
  0
ARC
  5
3B3
  8
0
  6
DASHED2
 62
     7
 10
51.43854226209241
 20
124.0454319848178
 30
0.0
 40
3.299999952316284
 50
270.0000179860894
 51
286.5171775879861
  0
ARC
  5
3B4
  8
0
  6
DASHED2
 62
     7
 10
58.73854531385022
 20
128.495413674271
 30
0.0
 40
2.0
 50
0.0
 51
38.68218896809879
  0
ARC
  5
3B5
  8
0
  6
DASHED2
 62
     7
 10
58.73854531385022
 20
119.5954197777866
 30
0.0
 40
2.0
 50
0.0
 51
51.09316519948326
  0
ARC
  5
3B6
  8
0
  6
DASHED2
 62
     7
 10
54.73854531385023
 20
124.0454319848178
 30
0.0
 40
6.0
 50
0.0
 51
28.83423780766658
  0
ARC
  5
3B7
  8
0
  6
DASHED2
 62
     7
 10
62.73854531385022
 20
124.0454319848178
 30
0.0
 40
6.0
 50
151.1657740314788
 51
208.8342086656771
  0
ARC
  5
3B8
  8
0
  6
DASHED2
 62
     7
 10
54.73854531385023
 20
124.0454319848178
 30
0.0
 40
6.0
 50
331.1657621923334
 51
360.0
  0
ARC
  5
3B9
  8
0
  6
DASHED2
 62
     7
 10
58.73854531385022
 20
128.495413674271
 30
0.0
 40
2.0
 50
308.9068348005167
 51
360.0
  0
ARC
  5
3BA
  8
0
  6
DASHED2
 62
     7
 10
58.73854531385022
 20
128.495413674271
 30
0.0
 40
2.0
 50
141.3178297012362
 51
231.0931121518317
  0
ARC
  5
3BB
  8
0
  6
DASHED2
 62
     7
 10
58.73854531385022
 20
119.5954197777866
 30
0.0
 40
2.0
 50
128.9068568849459
 51
218.6821529959199
  0
ARC
  5
3BC
  8
0
  6
DASHED2
 62
     7
 10
58.73854531385022
 20
119.5954197777866
 30
0.0
 40
2.0
 50
321.3178110319012
 51
360.0
  0
ARC
  5
3BD
  8
0
  6
DASHED2
 62
     7
 10
52.77174080945569
 20
132.8454197777866
 30
0.0
 40
5.650000095367432
 50
265.9910930942637
 51
315.0592540539054
  0
ARC
  5
3BE
  8
0
  6
DASHED2
 62
     7
 10
52.77174080945569
 20
115.245413674271
 30
0.0
 40
5.650000095367432
 50
44.94074594609459
 51
94.00890690573625
  0
ARC
  5
3BF
  8
0
  6
DASHED2
 62
     7
 10
49.43854226209241
 20
124.0454319848178
 30
0.0
 40
1.5
 50
117.818154050457
 51
242.1818423070773
  0
LINE
  5
3C0
  8
0
  6
DASHED2
 62
     7
 10
18.29006701361387
 20
36.54540815984105
 30
0.0
 11
-1.709932986386114
 21
36.54540815984105
 31
0.0
  0
LINE
  5
3C1
  8
0
  6
DASHED2
 62
     7
 10
23.29006701361387
 20
35.84540815984106
 30
0.0
 11
-1.709932986386122
 21
35.84540815984104
 31
0.0
  0
LINE
  5
3C2
  8
0
  6
DASHED2
 62
     7
 10
23.29006701361387
 20
35.84540815984106
 30
0.0
 11
23.29006701361386
 21
27.24540815984102
 31
0.0
  0
LINE
  5
3C3
  8
0
  6
DASHED2
 62
     7
 10
23.2900670136138
 20
35.84540815984117
 30
0.0
 11
25.77267317112924
 21
31.54540815984113
 31
0.0
  0
LINE
  5
3C4
  8
0
  6
DASHED2
 62
     7
 10
18.29006701361387
 20
36.54540815984105
 30
0.0
 11
18.29006701361386
 21
26.54540815984104
 31
0.0
  0
LINE
  5
3C5
  8
0
  6
DASHED2
 62
     7
 10
18.29006701361386
 20
26.54540815984104
 30
0.0
 11
-1.709932986386118
 21
26.54540815984104
 31
0.0
  0
LINE
  5
3C6
  8
0
  6
DASHED2
 62
     7
 10
23.29006701361386
 20
27.24540815984102
 30
0.0
 11
-1.709932986386118
 21
27.24540815984103
 31
0.0
  0
LINE
  5
3C7
  8
0
  6
DASHED2
 62
     7
 10
23.29006701361387
 20
27.24540815984092
 30
0.0
 11
25.77267317112922
 21
31.54540815984098
 31
0.0
  0
LINE
  5
3C8
  8
0
  6
CONTINUOUS
 62
     3
 10
-100.5018218284006
 20
154.5454167260288
 30
0.0
 11
-100.5018218284006
 21
147.5454167260288
 31
0.0
  0
LINE
  5
3C9
  8
0
  6
CONTINUOUS
 62
     3
 10
-200.5018218284007
 20
156.5454167260288
 30
0.0
 11
-200.5018218284007
 21
-80.95458327397122
 31
0.0
  0
LINE
  5
3CA
  8
0
  6
CONTINUOUS
 62
     3
 10
-200.5018218284007
 20
-93.45458327397122
 30
0.0
 11
-102.5018218284006
 21
-93.45458327397122
 31
0.0
  0
LINE
  5
3CB
  8
0
  6
CONTINUOUS
 62
     3
 10
-200.5018218284007
 20
156.5454167260288
 30
0.0
 11
-174.5018218284007
 21
156.5454167260288
 31
0.0
  0
LINE
  5
3CC
  8
0
  6
CONTINUOUS
 62
     3
 10
-101.5018150678664
 20
155.5453934847812
 30
0.0
 11
-100.5018247958699
 21
154.5454032127847
 31
0.0
  0
LINE
  5
3CD
  8
0
  6
CONTINUOUS
 62
     3
 10
-100.50180928583
 20
-91.45457133966752
 30
0.0
 11
-102.501822198602
 21
-93.45458425243956
 31
0.0
  0
LINE
  5
3CE
  8
0
  6
CONTINUOUS
 62
     3
 10
-196.3018096213694
 20
139.0454167260288
 30
0.0
 11
-196.3018096213694
 21
-75.95458327397122
 31
0.0
  0
LINE
  5
3CF
  8
0
  6
CONTINUOUS
 62
     3
 10
-195.8018096213694
 20
144.0454167260288
 30
0.0
 11
-195.8018096213694
 21
139.0454167260288
 31
0.0
  0
LINE
  5
3D0
  8
0
  6
CONTINUOUS
 62
     3
 10
-200.5018218284007
 20
-80.95458327397122
 30
0.0
 11
-195.8018248801585
 21
-80.95458327397122
 31
0.0
  0
LINE
  5
3D1
  8
0
  6
CONTINUOUS
 62
     3
 10
-200.5018218284007
 20
144.0454167260288
 30
0.0
 11
-195.8018248801585
 21
144.0454167260288
 31
0.0
  0
LINE
  5
3D2
  8
0
  6
CONTINUOUS
 62
     3
 10
-196.3018248801585
 20
-75.95458327397122
 30
0.0
 11
-195.8018248801585
 21
-75.95458327397122
 31
0.0
  0
LINE
  5
3D3
  8
0
  6
CONTINUOUS
 62
     3
 10
-196.3018248801585
 20
139.0454167260288
 30
0.0
 11
-195.8018248801585
 21
139.0454167260288
 31
0.0
  0
LINE
  5
3D4
  8
0
  6
CONTINUOUS
 62
     3
 10
-103.0018218284006
 20
-20.95458327397123
 30
0.0
 11
-100.5018218284006
 21
-20.95458327397123
 31
0.0
  0
LINE
  5
3D5
  8
0
  6
CONTINUOUS
 62
     3
 10
-103.0018218284006
 20
78.97958268061862
 30
0.0
 11
-103.0018218284006
 21
-20.9545813666226
 31
0.0
  0
LINE
  5
3D6
  8
0
  6
CONTINUOUS
 62
     3
 10
-195.8018096213694
 20
-75.95458327397122
 30
0.0
 11
-195.8018096213694
 21
-80.95458327397122
 31
0.0
  0
LINE
  5
3D7
  8
0
  6
CONTINUOUS
 62
     3
 10
-120.5018218284007
 20
-25.20458327397123
 30
0.0
 11
-120.5018218284007
 21
-31.70458327397123
 31
0.0
  0
LINE
  5
3D8
  8
0
  6
CONTINUOUS
 62
     3
 10
-120.5018218284007
 20
-25.20458327397123
 30
0.0
 11
-100.5018218284006
 21
-25.20458327397123
 31
0.0
  0
LINE
  5
3D9
  8
0
  6
CONTINUOUS
 62
     3
 10
-120.5018218284007
 20
-31.70458327397123
 30
0.0
 11
-100.5018218284006
 21
-31.70458327397123
 31
0.0
  0
LINE
  5
3DA
  8
0
  6
CONTINUOUS
 62
     3
 10
-122.3782200740191
 20
-28.45458559964832
 30
0.0
 11
-120.5018313005315
 21
-25.20458535497787
 31
0.0
  0
LINE
  5
3DB
  8
0
  6
CONTINUOUS
 62
     3
 10
-122.3782293482734
 20
-28.4545891106811
 30
0.0
 11
-120.5018405747857
 21
-31.70458935535155
 31
0.0
  0
LINE
  5
3DC
  8
0
  6
CONTINUOUS
 62
     3
 10
-103.0018218284006
 20
78.97958268061862
 30
0.0
 11
-100.5018218284006
 21
78.97958268061862
 31
0.0
  0
LINE
  5
3DD
  8
0
  6
CONTINUOUS
 62
     3
 10
-120.5018218284007
 20
75.07414139643893
 30
0.0
 11
-103.0018218284006
 21
75.07414139643893
 31
0.0
  0
LINE
  5
3DE
  8
0
  6
CONTINUOUS
 62
     3
 10
-120.5018218284007
 20
90.54541672602878
 30
0.0
 11
-120.5018218284007
 21
75.07414139643893
 31
0.0
  0
LINE
  5
3DF
  8
0
  6
CONTINUOUS
 62
     3
 10
-124.3235279725446
 20
-16.45457601415055
 30
0.0
 11
-125.3235290341341
 21
-17.45457707574005
 31
0.0
  0
LINE
  5
3E0
  8
0
  6
CONTINUOUS
 62
     3
 10
-181.3235264429862
 20
-16.45457331675229
 30
0.0
 11
-180.3235253813967
 21
-17.45457437834179
 31
0.0
  0
LINE
  5
3E1
  8
0
  6
CONTINUOUS
 62
     3
 10
-174.5018218284007
 20
156.5454167260288
 30
0.0
 11
-102.5018218284006
 21
156.5454167260288
 31
0.0
  0
LINE
  5
3E2
  8
0
  6
CONTINUOUS
 62
     3
 10
-152.3235381369944
 20
75.54541672602878
 30
0.0
 11
-152.3235381369944
 21
-12.4545813666226
 31
0.0
  0
LINE
  5
3E3
  8
0
  6
CONTINUOUS
 62
     3
 10
-150.3235381369944
 20
75.54541672602878
 30
0.0
 11
-150.3235381369944
 21
14.66283644572482
 31
0.0
  0
LINE
  5
3E4
  8
0
  6
CONTINUOUS
 62
     3
 10
-136.3235381369944
 20
77.04541672602878
 30
0.0
 11
-136.3235381369944
 21
14.66283644572482
 31
0.0
  0
LINE
  5
3E5
  8
0
  6
CONTINUOUS
 62
     3
 10
-134.3235381369944
 20
77.04541672602878
 30
0.0
 11
-134.3235381369944
 21
-13.9545813666226
 31
0.0
  0
LINE
  5
3E6
  8
0
  6
CONTINUOUS
 62
     3
 10
-152.3235381369944
 20
75.54541672602878
 30
0.0
 11
-150.3235381369944
 21
75.54541672602878
 31
0.0
  0
LINE
  5
3E7
  8
0
  6
CONTINUOUS
 62
     3
 10
-152.3235381369944
 20
-12.45458327397123
 30
0.0
 11
-150.3235381369944
 21
-12.45458327397123
 31
0.0
  0
LINE
  5
3E8
  8
0
  6
CONTINUOUS
 62
     3
 10
-136.3235381369944
 20
-13.95458327397123
 30
0.0
 11
-134.3235381369944
 21
-13.95458327397123
 31
0.0
  0
LINE
  5
3E9
  8
0
  6
CONTINUOUS
 62
     3
 10
-136.3235381369944
 20
77.04541672602878
 30
0.0
 11
-134.3235381369944
 21
77.04541672602878
 31
0.0
  0
LINE
  5
3EA
  8
0
  6
CONTINUOUS
 62
     3
 10
-134.3235381369944
 20
-13.45458327397123
 30
0.0
 11
-124.3235305075999
 21
-13.45458327397123
 31
0.0
  0
LINE
  5
3EB
  8
0
  6
CONTINUOUS
 62
     3
 10
-134.3235381369944
 20
76.54541672602878
 30
0.0
 11
-124.3235305075999
 21
76.54541672602878
 31
0.0
  0
LINE
  5
3EC
  8
0
  6
CONTINUOUS
 62
     3
 10
-134.3235381369944
 20
-12.65458022221342
 30
0.0
 11
-124.3235305075999
 21
-12.65458022221342
 31
0.0
  0
LINE
  5
3ED
  8
0
  6
CONTINUOUS
 62
     3
 10
-120.5018141990061
 20
91.54541672602878
 30
0.0
 11
-100.0018141990061
 21
91.54541672602878
 31
0.0
  0
LINE
  5
3EE
  8
0
  6
CONTINUOUS
 62
     3
 10
-112.5018141990061
 20
156.5454167260288
 30
0.0
 11
-112.5018141990061
 21
147.5454167260288
 31
0.0
  0
LINE
  5
3EF
  8
0
  6
CONTINUOUS
 62
     3
 10
-120.5018141990061
 20
147.5454167260288
 30
0.0
 11
-120.5018141990061
 21
91.54541672602878
 31
0.0
  0
LINE
  5
3F0
  8
0
  6
CONTINUOUS
 62
     3
 10
-100.0018141990061
 20
147.5454167260288
 30
0.0
 11
-100.0018141990061
 21
140.5454167260288
 31
0.0
  0
LINE
  5
3F1
  8
0
  6
CONTINUOUS
 62
     3
 10
-120.5018141990061
 20
147.5454167260288
 30
0.0
 11
-100.0018141990061
 21
147.5454167260288
 31
0.0
  0
LINE
  5
3F2
  8
0
  6
CONTINUOUS
 62
     3
 10
-112.5018141990061
 20
91.54541672602878
 30
0.0
 11
-112.5018141990061
 21
90.54541672602878
 31
0.0
  0
LINE
  5
3F3
  8
0
  6
CONTINUOUS
 62
     3
 10
-100.5018218284006
 20
90.54541672602878
 30
0.0
 11
-100.5018218284006
 21
-91.45458327397122
 31
0.0
  0
LINE
  5
3F4
  8
0
  6
CONTINUOUS
 62
     3
 10
-121.5018141990061
 20
90.54541672602878
 30
0.0
 11
-101.5018141990061
 21
90.54541672602878
 31
0.0
  0
LINE
  5
3F5
  8
0
  6
CONTINUOUS
 62
     3
 10
-100.0018141990061
 20
128.5454167260288
 30
0.0
 11
-100.0018141990061
 21
110.5454167260288
 31
0.0
  0
LINE
  5
3F6
  8
0
  6
CONTINUOUS
 62
     3
 10
-100.0018141990061
 20
98.54541672602878
 30
0.0
 11
-100.0018141990061
 21
91.54541672602878
 31
0.0
  0
LINE
  5
3F7
  8
0
  6
CONTINUOUS
 62
     3
 10
-89.50181419900611
 20
113.5454167260288
 30
0.0
 11
-89.50181419900611
 21
95.54541672602878
 31
0.0
  0
LINE
  5
3F8
  8
0
  6
CONTINUOUS
 62
     3
 10
-89.50181419900611
 20
143.5454167260288
 30
0.0
 11
-89.50181419900611
 21
125.5454167260288
 31
0.0
  0
LINE
  5
3F9
  8
0
  6
CONTINUOUS
 62
     3
 10
-77.50182182840064
 20
143.5454167260288
 30
0.0
 11
-77.50182182840064
 21
125.5454167260288
 31
0.0
  0
LINE
  5
3FA
  8
0
  6
CONTINUOUS
 62
     3
 10
-77.50182182840064
 20
113.5454167260288
 30
0.0
 11
-77.50182182840064
 21
95.54541672602878
 31
0.0
  0
LINE
  5
3FB
  8
0
  6
CONTINUOUS
 62
     3
 10
-120.5018141990061
 20
110.5454167260288
 30
0.0
 11
-89.50181419900611
 21
110.5454167260288
 31
0.0
  0
LINE
  5
3FC
  8
0
  6
CONTINUOUS
 62
     3
 10
-120.5018141990061
 20
98.54541672602878
 30
0.0
 11
-89.50181419900611
 21
98.54541672602878
 31
0.0
  0
LINE
  5
3FD
  8
0
  6
CONTINUOUS
 62
     3
 10
-120.5018141990061
 20
128.5454167260288
 30
0.0
 11
-89.50181419900611
 21
128.5454167260288
 31
0.0
  0
LINE
  5
3FE
  8
0
  6
CONTINUOUS
 62
     3
 10
-120.5018141990061
 20
140.5454167260288
 30
0.0
 11
-89.50181419900611
 21
140.5454167260288
 31
0.0
  0
LINE
  5
3FF
  8
0
  6
CONTINUOUS
 62
     3
 10
-89.50181419900611
 20
113.5454167260288
 30
0.0
 11
-77.50181419900611
 21
113.5454167260288
 31
0.0
  0
LINE
  5
400
  8
0
  6
CONTINUOUS
 62
     3
 10
-89.50181419900611
 20
95.54541672602878
 30
0.0
 11
-77.50181419900611
 21
95.54541672602878
 31
0.0
  0
LINE
  5
401
  8
0
  6
CONTINUOUS
 62
     3
 10
-89.50181419900611
 20
125.5454167260288
 30
0.0
 11
-77.50181419900611
 21
125.5454167260288
 31
0.0
  0
LINE
  5
402
  8
0
  6
CONTINUOUS
 62
     3
 10
-89.50181419900611
 20
143.5454167260288
 30
0.0
 11
-77.50181419900611
 21
143.5454167260288
 31
0.0
  0
LINE
  5
403
  8
0
  6
CONTINUOUS
 62
     3
 10
-114.5018141990061
 20
140.5454167260288
 30
0.0
 11
-114.5018141990061
 21
128.5454167260288
 31
0.0
  0
LINE
  5
404
  8
0
  6
CONTINUOUS
 62
     3
 10
-114.5018141990061
 20
110.5454167260288
 30
0.0
 11
-114.5018141990061
 21
98.54541672602878
 31
0.0
  0
LINE
  5
405
  8
0
  6
CONTINUOUS
 62
     3
 10
-125.3235344289306
 20
80.54541906410069
 30
0.0
 11
-124.3235333673411
 21
79.54541800251118
 31
0.0
  0
LINE
  5
406
  8
0
  6
CONTINUOUS
 62
     3
 10
-124.3235305075999
 20
79.54541672602878
 30
0.0
 11
-124.3235305075999
 21
-16.4545813666226
 31
0.0
  0
LINE
  5
407
  8
0
  6
CONTINUOUS
 62
     3
 10
-181.3234813686875
 20
79.54538765045905
 30
0.0
 11
-180.3234986830501
 21
80.54538559310745
 31
0.0
  0
LINE
  5
408
  8
0
  6
CONTINUOUS
 62
     3
 10
-181.3235381369944
 20
79.54541672602878
 30
0.0
 11
-181.3235381369944
 21
-16.4545813666226
 31
0.0
  0
LINE
  5
409
  8
0
  6
CONTINUOUS
 62
     3
 10
-134.5018218284007
 20
84.47225846186862
 30
0.0
 11
-121.5017989402171
 21
84.47225846186862
 31
0.0
  0
LINE
  5
40A
  8
0
  6
CONTINUOUS
 62
     3
 10
-142.401800466096
 20
104.3133534325717
 30
0.0
 11
-142.401800466096
 21
84.47225846186862
 31
0.0
  0
LINE
  5
40B
  8
0
  6
CONTINUOUS
 62
     3
 10
-134.5018218284007
 20
99.54541672602878
 30
0.0
 11
-134.5018218284007
 21
84.47225846186862
 31
0.0
  0
LINE
  5
40C
  8
0
  6
CONTINUOUS
 62
     3
 10
-142.401800466096
 20
99.54541672602878
 30
0.0
 11
-134.5018218284007
 21
99.54541672602878
 31
0.0
  0
LINE
  5
40D
  8
0
  6
CONTINUOUS
 62
     3
 10
-121.5017989402171
 20
156.5454167260288
 30
0.0
 11
-121.5017989402171
 21
78.54541672602878
 31
0.0
  0
LINE
  5
40E
  8
0
  6
CONTINUOUS
 62
     3
 10
-196.3018096213694
 20
80.54541672602878
 30
0.0
 11
-125.3235228782053
 21
80.54541672602878
 31
0.0
  0
LINE
  5
40F
  8
0
  6
CONTINUOUS
 62
     3
 10
-142.2018035178538
 20
93.54541672602878
 30
0.0
 11
-134.7018035178538
 21
93.54541672602878
 31
0.0
  0
LINE
  5
410
  8
0
  6
CONTINUOUS
 62
     3
 10
-142.2017882590647
 20
93.54541672602878
 30
0.0
 11
-142.2017882590647
 21
80.54541672602878
 31
0.0
  0
LINE
  5
411
  8
0
  6
CONTINUOUS
 62
     3
 10
-134.7017882590647
 20
93.54541672602878
 30
0.0
 11
-134.7017882590647
 21
80.54541672602878
 31
0.0
  0
LINE
  5
412
  8
0
  6
CONTINUOUS
 62
     3
 10
-174.5018218284007
 20
156.5454167260288
 30
0.0
 11
-174.5018218284007
 21
133.5535394477516
 31
0.0
  0
LINE
  5
413
  8
0
  6
CONTINUOUS
 62
     3
 10
-196.3018096213694
 20
-17.4545699225308
 30
0.0
 11
-103.0018294577952
 21
-17.4545699225308
 31
0.0
  0
LINE
  5
414
  8
0
  6
CONTINUOUS
 62
     3
 10
-134.7018035178538
 20
-17.45456801518217
 30
0.0
 11
-134.7018035178538
 21
-30.45457182987943
 31
0.0
  0
LINE
  5
415
  8
0
  6
CONTINUOUS
 62
     3
 10
-142.2018035178538
 20
-17.45456801518217
 30
0.0
 11
-142.2018035178538
 21
-30.45457182987943
 31
0.0
  0
LINE
  5
416
  8
0
  6
CONTINUOUS
 62
     3
 10
-142.2018187766428
 20
-30.45457182987943
 30
0.0
 11
-134.7018187766428
 21
-30.45457182987943
 31
0.0
  0
LINE
  5
417
  8
0
  6
CONTINUOUS
 62
     3
 10
-150.3235381369944
 20
10.06829298869357
 30
0.0
 11
-150.3235381369944
 21
-12.4545813666226
 31
0.0
  0
LINE
  5
418
  8
0
  6
CONTINUOUS
 62
     3
 10
-136.3235381369944
 20
10.98720158473239
 30
0.0
 11
-136.3235381369944
 21
-13.9545813666226
 31
0.0
  0
LINE
  5
419
  8
0
  6
CONTINUOUS
 62
     3
 10
-200.5018218284007
 20
-80.95458327397122
 30
0.0
 11
-200.5018218284007
 21
-93.45458327397122
 31
0.0
  0
LINE
  5
41A
  8
0
  6
CONTINUOUS
 62
     3
 10
-180.3235381369944
 20
-3.454583273971227
 30
0.0
 11
-153.3235381369944
 21
-3.454583273971227
 31
0.0
  0
LINE
  5
41B
  8
0
  6
CONTINUOUS
 62
     3
 10
-129.3235381369944
 20
74.04541672602878
 30
0.0
 11
-129.3235381369944
 21
68.04541672602876
 31
0.0
  0
LINE
  5
41C
  8
0
  6
CONTINUOUS
 62
     3
 10
-125.3235381369944
 20
74.04541672602878
 30
0.0
 11
-125.3235381369944
 21
68.04541672602876
 31
0.0
  0
LINE
  5
41D
  8
0
  6
CONTINUOUS
 62
     3
 10
-180.3235381369944
 20
66.54541672602878
 30
0.0
 11
-153.3235381369944
 21
66.54541672602878
 31
0.0
  0
LINE
  5
41E
  8
0
  6
CONTINUOUS
 62
     3
 10
-180.3235387041917
 20
66.54542832097482
 30
0.0
 11
-181.3235378270241
 21
67.54543132132143
 31
0.0
  0
LINE
  5
41F
  8
0
  6
CONTINUOUS
 62
     3
 10
-153.323518630966
 20
66.54539404265611
 30
0.0
 11
-152.3235156306194
 21
67.54539324978227
 31
0.0
  0
LINE
  5
420
  8
0
  6
CONTINUOUS
 62
     3
 10
-153.3235222232018
 20
-3.454573385543743
 30
0.0
 11
-152.3235227632088
 21
-4.454565259136732
 31
0.0
  0
LINE
  5
421
  8
0
  6
CONTINUOUS
 62
     3
 10
-180.3235227746321
 20
-3.454611911531945
 30
0.0
 11
-181.3235168398081
 21
-4.454598390348881
 31
0.0
  0
LINE
  5
422
  8
0
  6
CONTINUOUS
 62
     3
 10
-150.3235381369944
 20
-12.20458327397122
 30
0.0
 11
-136.3235381369944
 21
-12.20458327397122
 31
0.0
  0
LINE
  5
423
  8
0
  6
CONTINUOUS
 62
     3
 10
-150.3235381369944
 20
75.29541672602878
 30
0.0
 11
-136.3235381369944
 21
75.29541672602878
 31
0.0
  0
LINE
  5
424
  8
0
  6
CONTINUOUS
 62
     3
 10
-134.3235381369944
 20
66.54541672602876
 30
0.0
 11
-124.3235381369944
 21
66.54541672602876
 31
0.0
  0
LINE
  5
425
  8
0
  6
CONTINUOUS
 62
     3
 10
-134.3235381369944
 20
74.04541672602878
 30
0.0
 11
-124.3235381369944
 21
74.04541672602878
 31
0.0
  0
LINE
  5
426
  8
0
  6
CONTINUOUS
 62
     3
 10
-134.3235381369944
 20
68.04541672602876
 30
0.0
 11
-124.3235381369944
 21
68.04541672602876
 31
0.0
  0
LINE
  5
427
  8
0
  6
CONTINUOUS
 62
     3
 10
-134.3235381369944
 20
-3.454583273971227
 30
0.0
 11
-124.3235381369944
 21
-3.454583273971227
 31
0.0
  0
CIRCLE
  5
428
  8
0
  6
CONTINUOUS
 62
     3
 10
83.73850170507524
 20
31.54541672602877
 30
0.0
 40
3.099999904632568
  0
CIRCLE
  5
429
  8
0
  6
CONTINUOUS
 62
     3
 10
162.7385017050752
 20
31.54541672602877
 30
0.0
 40
3.099999904632568
  0
LINE
  5
42A
  8
0
  6
CONTINUOUS
 62
     3
 10
90.73854531385022
 20
154.7821415795444
 30
0.0
 11
90.73854531385022
 21
152.2464970482944
 31
0.0
  0
LINE
  5
42B
  8
0
  6
CONTINUOUS
 62
     3
 10
155.7385529432448
 20
154.7821415795444
 30
0.0
 11
155.7385529432448
 21
152.2464970482944
 31
0.0
  0
LINE
  5
42C
  8
0
  6
CONTINUOUS
 62
     3
 10
109.9885453138502
 20
90.54541672602878
 30
0.0
 11
109.9885453138502
 21
84.41022385493503
 31
0.0
  0
LINE
  5
42D
  8
0
  6
CONTINUOUS
 62
     3
 10
136.4885529432448
 20
90.54541672602878
 30
0.0
 11
136.4885529432448
 21
84.41022385493503
 31
0.0
  0
LINE
  5
42E
  8
0
  6
CONTINUOUS
 62
     3
 10
100.7385453138502
 20
90.54543198481784
 30
0.0
 11
113.2385453138502
 21
90.54543198481784
 31
0.0
  0
LINE
  5
42F
  8
0
  6
CONTINUOUS
 62
     3
 10
133.2385529432448
 20
90.54543198481784
 30
0.0
 11
145.7385529432448
 21
90.54543198481784
 31
0.0
  0
LINE
  5
430
  8
0
  6
CONTINUOUS
 62
     3
 10
113.2385453138502
 20
91.54543198481784
 30
0.0
 11
133.2385529432448
 21
91.54543198481784
 31
0.0
  0
LINE
  5
431
  8
0
  6
CONTINUOUS
 62
     3
 10
113.2385453138502
 20
147.5454319848178
 30
0.0
 11
133.2385529432448
 21
147.5454319848178
 31
0.0
  0
LINE
  5
432
  8
0
  6
CONTINUOUS
 62
     3
 10
133.2385529432448
 20
-27.45458327397123
 30
0.0
 11
133.2385529432448
 21
-93.45458327397122
 31
0.0
  0
LINE
  5
433
  8
0
  6
CONTINUOUS
 62
     3
 10
113.2385453138502
 20
-27.45458327397123
 30
0.0
 11
113.2385453138502
 21
-93.45458327397122
 31
0.0
  0
LINE
  5
434
  8
0
  6
CONTINUOUS
 62
     3
 10
100.7385453138502
 20
-11.98330603703275
 30
0.0
 11
100.7385453138502
 21
-93.45458327397122
 31
0.0
  0
LINE
  5
435
  8
0
  6
CONTINUOUS
 62
     3
 10
145.7385529432448
 20
-11.98330603703275
 30
0.0
 11
145.7385529432448
 21
-93.45458327397122
 31
0.0
  0
LINE
  5
436
  8
0
  6
CONTINUOUS
 62
     3
 10
100.7385453138502
 20
-93.45458327397122
 30
0.0
 11
145.7385529432448
 21
-93.45458327397122
 31
0.0
  0
LINE
  5
437
  8
0
  6
CONTINUOUS
 62
     3
 10
155.7385529432448
 20
-89.15566359623685
 30
0.0
 11
155.7385529432448
 21
-91.69131575688138
 31
0.0
  0
LINE
  5
438
  8
0
  6
CONTINUOUS
 62
     3
 10
90.73854531385022
 20
-89.15566359623685
 30
0.0
 11
90.73854531385022
 21
-91.69131575688138
 31
0.0
  0
LINE
  5
439
  8
0
  6
CONTINUOUS
 62
     3
 10
145.7385449167471
 20
-93.45457930687539
 30
0.0
 11
155.7385449151828
 21
-91.69130944911908
 31
0.0
  0
LINE
  5
43A
  8
0
  6
CONTINUOUS
 62
     3
 10
90.73854474108821
 20
-91.69131074254332
 30
0.0
 11
100.7385447395239
 21
-93.45458060029964
 31
0.0
  0
LINE
  5
43B
  8
0
  6
CONTINUOUS
 62
     3
 10
100.7385453138502
 20
-27.45458327397123
 30
0.0
 11
113.2385453138502
 21
-27.45458327397123
 31
0.0
  0
LINE
  5
43C
  8
0
  6
CONTINUOUS
 62
     3
 10
136.4885529432448
 20
-21.31938468083158
 30
0.0
 11
136.4885529432448
 21
-27.45458327397123
 31
0.0
  0
LINE
  5
43D
  8
0
  6
CONTINUOUS
 62
     3
 10
109.9885453138502
 20
-21.31938468083158
 30
0.0
 11
109.9885453138502
 21
-27.45458327397123
 31
0.0
  0
LINE
  5
43E
  8
0
  6
CONTINUOUS
 62
     3
 10
133.2385529432448
 20
-27.45458327397123
 30
0.0
 11
145.7385529432448
 21
-27.45458327397123
 31
0.0
  0
LINE
  5
43F
  8
0
  6
CONTINUOUS
 62
     3
 10
113.2385453138502
 20
-28.45458327397123
 30
0.0
 11
133.2385529432448
 21
-28.45458327397123
 31
0.0
  0
LINE
  5
440
  8
0
  6
CONTINUOUS
 62
     3
 10
113.2385453138502
 20
-84.45458327397122
 30
0.0
 11
133.2385529432448
 21
-84.45458327397122
 31
0.0
  0
ARC
  5
441
  8
0
  6
CONTINUOUS
 62
     3
 10
123.2385529432448
 20
31.54541672602877
 30
0.0
 40
125.0
 50
100.3697801174991
 51
259.6301889192785
  0
ARC
  5
442
  8
0
  6
CONTINUOUS
 62
     3
 10
123.2385529432448
 20
31.54541672602877
 30
0.0
 40
123.0
 50
100.5403026203177
 51
259.4596800768383
  0
ARC
  5
443
  8
0
  6
CONTINUOUS
 62
     3
 10
123.2385529432448
 20
31.54541672602877
 30
0.0
 40
54.5
 50
65.61638426188354
 51
114.3836344074511
  0
CIRCLE
  5
444
  8
0
  6
CONTINUOUS
 62
     3
 10
170.3848847303541
 20
78.69176377192721
 30
0.0
 40
7.0
  0
CIRCLE
  5
445
  8
0
  6
CONTINUOUS
 62
     3
 10
76.09219826795179
 20
78.69176377192721
 30
0.0
 40
7.0
  0
CIRCLE
  5
446
  8
0
  6
CONTINUOUS
 62
     3
 10
123.2385529432448
 20
31.54541672602877
 30
0.0
 40
45.0
  0
ARC
  5
447
  8
0
  6
CONTINUOUS
 62
     3
 10
123.2385529432448
 20
31.54541672602877
 30
0.0
 40
52.5
 50
115.3769488184461
 51
244.6230338787099
  0
ARC
  5
448
  8
0
  6
CONTINUOUS
 62
     3
 10
123.2385529432448
 20
31.54541672602877
 30
0.0
 40
52.5
 50
295.3769301491114
 51
424.6230698508886
  0
CIRCLE
  5
449
  8
0
  6
CONTINUOUS
 62
     3
 10
123.2385529432448
 20
31.54541672602877
 30
0.0
 40
49.0
  0
ARC
  5
44A
  8
0
  6
CONTINUOUS
 62
     3
 10
123.2385529432448
 20
31.54541672602877
 30
0.0
 40
54.5
 50
245.6163655925489
 51
294.3836157381164
  0
CIRCLE
  5
44B
  8
0
  6
CONTINUOUS
 62
     3
 10
175.2000702772291
 20
61.54541672602878
 30
0.0
 40
3.150000095367432
  0
CIRCLE
  5
44C
  8
0
  6
CONTINUOUS
 62
     3
 10
71.27701272107679
 20
61.54541672602878
 30
0.0
 40
3.150000095367432
  0
CIRCLE
  5
44D
  8
0
  6
CONTINUOUS
 62
     3
 10
170.3848847303541
 20
78.69176377192721
 30
0.0
 40
10.0
  0
CIRCLE
  5
44E
  8
0
  6
CONTINUOUS
 62
     3
 10
76.09219826795179
 20
78.69176377192721
 30
0.0
 40
10.0
  0
CIRCLE
  5
44F
  8
0
  6
CONTINUOUS
 62
     3
 10
170.3848847303541
 20
-15.60093031986967
 30
0.0
 40
7.0
  0
CIRCLE
  5
450
  8
0
  6
CONTINUOUS
 62
     3
 10
170.3848847303541
 20
-15.60093031986967
 30
0.0
 40
10.0
  0
CIRCLE
  5
451
  8
0
  6
CONTINUOUS
 62
     3
 10
76.09219826795179
 20
-15.60093031986967
 30
0.0
 40
10.0
  0
CIRCLE
  5
452
  8
0
  6
CONTINUOUS
 62
     3
 10
175.2000702772291
 20
1.545416726028773
 30
0.0
 40
3.150000095367432
  0
CIRCLE
  5
453
  8
0
  6
CONTINUOUS
 62
     3
 10
71.27701272107679
 20
1.545416726028773
 30
0.0
 40
3.150000095367432
  0
LINE
  5
454
  8
0
  6
CONTINUOUS
 62
     3
 10
100.7385453138502
 20
156.5454319848178
 30
0.0
 11
145.7385529432448
 21
156.5454319848178
 31
0.0
  0
LINE
  5
455
  8
0
  6
CONTINUOUS
 62
     3
 10
100.7385453138502
 20
156.5454167260288
 30
0.0
 11
100.7385453138502
 21
75.07414139643893
 31
0.0
  0
LINE
  5
456
  8
0
  6
CONTINUOUS
 62
     3
 10
145.7385529432448
 20
156.5454167260288
 30
0.0
 11
145.7385529432448
 21
75.07414139643893
 31
0.0
  0
LINE
  5
457
  8
0
  6
CONTINUOUS
 62
     3
 10
90.73853769859652
 20
154.7820965943107
 30
0.0
 11
100.7385452105189
 21
156.5453677768975
 31
0.0
  0
LINE
  5
458
  8
0
  6
CONTINUOUS
 62
     3
 10
145.7385272046138
 20
156.5454005119115
 30
0.0
 11
155.7385347165362
 21
154.7821293293247
 31
0.0
  0
LINE
  5
459
  8
0
  6
CONTINUOUS
 62
     3
 10
133.2385529432448
 20
156.5454167260288
 30
0.0
 11
133.2385529432448
 21
90.54541672602878
 31
0.0
  0
LINE
  5
45A
  8
0
  6
CONTINUOUS
 62
     3
 10
113.2385453138502
 20
156.5454167260288
 30
0.0
 11
113.2385453138502
 21
90.54541672602878
 31
0.0
  0
ARC
  5
45B
  8
0
  6
CONTINUOUS
 62
     3
 10
123.2385529432448
 20
31.54541672602877
 30
0.0
 40
125.0
 50
280.3697614481645
 51
439.6302385518355
  0
ARC
  5
45C
  8
0
  6
CONTINUOUS
 62
     3
 10
123.2385529432448
 20
31.54541672602877
 30
0.0
 40
123.0
 50
280.540283950983
 51
439.459716049017
  0
CIRCLE
  5
45D
  8
0
  6
CONTINUOUS
 62
     3
 10
123.2385529432448
 20
31.54541672602877
 30
0.0
 40
35.0
  0
CIRCLE
  5
45E
  8
0
  6
CONTINUOUS
 62
     3
 10
123.2385017050752
 20
71.04541672602876
 30
0.0
 40
3.0
  0
CIRCLE
  5
45F
  8
0
  6
CONTINUOUS
 62
     3
 10
123.2385017050752
 20
71.04541672602876
 30
0.0
 40
3.0
  0
CIRCLE
  5
460
  8
0
  6
CONTINUOUS
 62
     3
 10
157.4465820118148
 20
11.79546109958521
 30
0.0
 40
3.0
  0
CIRCLE
  5
461
  8
0
  6
CONTINUOUS
 62
     3
 10
157.4465820118148
 20
11.79546109958521
 30
0.0
 40
3.0
  0
CIRCLE
  5
462
  8
0
  6
CONTINUOUS
 62
     3
 10
89.03057511284419
 20
11.79537235247232
 30
0.0
 40
2.999999999999999
  0
CIRCLE
  5
463
  8
0
  6
CONTINUOUS
 62
     3
 10
89.03057511284419
 20
11.79537235247232
 30
0.0
 40
2.999999999999999
  0
LINE
  5
464
  8
0
  6
CONTINUOUS
 62
     4
 10
-115.5018218284007
 20
-24.45458327397123
 30
0.0
 11
-115.5018218284007
 21
-32.45458327397122
 31
0.0
  0
LINE
  5
465
  8
0
  6
CONTINUOUS
 62
     4
 10
-115.5018218284007
 20
-32.45458327397122
 30
0.0
 11
-100.5018218284006
 21
-32.45458327397122
 31
0.0
  0
LINE
  5
466
  8
0
  6
CONTINUOUS
 62
     4
 10
-115.5018218284007
 20
-24.45458327397123
 30
0.0
 11
-100.5018218284006
 21
-24.45458327397123
 31
0.0
  0
LINE
  5
467
  8
0
  6
CONTINUOUS
 62
     4
 10
-134.3235381369944
 20
75.7454213036655
 30
0.0
 11
-124.3235305075999
 21
75.7454213036655
 31
0.0
  0
LINE
  5
468
  8
0
  6
CONTINUOUS
 62
     4
 10
-101.5018141990061
 20
155.968069924271
 30
0.0
 11
-101.5018141990061
 21
155.6227787865757
 31
0.0
  0
LINE
  5
469
  8
0
  6
CONTINUOUS
 62
     4
 10
-101.5018141990061
 20
91.54541672602878
 30
0.0
 11
-101.5018141990061
 21
90.54541672602878
 31
0.0
  0
LINE
  5
46A
  8
0
  6
CONTINUOUS
 62
     4
 10
-102.5018141990061
 20
91.54541672602878
 30
0.0
 11
-102.5018141990061
 21
90.54541672602878
 31
0.0
  0
LINE
  5
46B
  8
0
  6
CONTINUOUS
 62
     4
 10
-120.5018141990061
 20
129.3954152001499
 30
0.0
 11
-89.50181419900611
 21
129.3954152001499
 31
0.0
  0
LINE
  5
46C
  8
0
  6
CONTINUOUS
 62
     4
 10
-120.5018141990061
 20
139.6954106225132
 30
0.0
 11
-89.50181419900611
 21
139.6954106225132
 31
0.0
  0
LINE
  5
46D
  8
0
  6
CONTINUOUS
 62
     4
 10
-120.5018141990061
 20
99.39541520014987
 30
0.0
 11
-89.50181419900611
 21
99.39541520014987
 31
0.0
  0
LINE
  5
46E
  8
0
  6
CONTINUOUS
 62
     4
 10
-120.5018141990061
 20
109.6954182519077
 30
0.0
 11
-89.50181419900611
 21
109.6954182519077
 31
0.0
  0
LINE
  5
46F
  8
0
  6
CONTINUOUS
 62
     4
 10
-102.5018211131767
 20
156.5454237254009
 30
0.0
 11
-101.5018270680678
 21
155.9680769580556
 31
0.0
  0
LINE
  5
470
  8
0
  6
CONTINUOUS
 62
     4
 10
-102.5018058334049
 20
155.0454195139861
 30
0.0
 11
-101.501811788296
 21
154.4680727466408
 31
0.0
  0
LINE
  5
471
  8
0
  6
CONTINUOUS
 62
     4
 10
-102.5018207973295
 20
153.5454239541097
 30
0.0
 11
-101.5018267522206
 21
152.9680771867644
 31
0.0
  0
LINE
  5
472
  8
0
  6
CONTINUOUS
 62
     4
 10
-102.5018093322547
 20
152.0454131354451
 30
0.0
 11
-101.5018152871458
 21
151.4680663680998
 31
0.0
  0
LINE
  5
473
  8
0
  6
CONTINUOUS
 62
     4
 10
-102.5018204814822
 20
150.5454241828185
 30
0.0
 11
-101.5018264363733
 21
149.9680774154732
 31
0.0
  0
LINE
  5
474
  8
0
  6
CONTINUOUS
 62
     4
 10
-102.5018090164074
 20
149.0454133641539
 30
0.0
 11
-101.5018149712985
 21
148.4680665968087
 31
0.0
  0
LINE
  5
475
  8
0
  6
CONTINUOUS
 62
     4
 10
-102.5018240517155
 20
149.0454131430249
 30
0.0
 11
-101.5018184439194
 21
149.6227665860899
 31
0.0
  0
LINE
  5
476
  8
0
  6
CONTINUOUS
 62
     4
 10
-102.501821041941
 20
150.5454366993519
 30
0.0
 11
-101.5018232802541
 21
151.1227856124643
 31
0.0
  0
LINE
  5
477
  8
0
  6
CONTINUOUS
 62
     4
 10
-102.5018275300882
 20
152.045454772052
 30
0.0
 11
-101.5018285295419
 21
152.6228044004201
 31
0.0
  0
LINE
  5
478
  8
0
  6
CONTINUOUS
 62
     4
 10
-102.5018317572317
 20
153.5454565308112
 30
0.0
 11
-101.5018335825917
 21
154.122805682342
 31
0.0
  0
LINE
  5
479
  8
0
  6
CONTINUOUS
 62
     4
 10
-102.5018149442436
 20
155.0454351984309
 30
0.0
 11
-101.5018167696035
 21
155.6227843499618
 31
0.0
  0
LINE
  5
47A
  8
0
  6
CONTINUOUS
 62
     4
 10
-101.5018141990061
 20
154.468069924271
 30
0.0
 11
-101.5018141990061
 21
154.1227635277866
 31
0.0
  0
LINE
  5
47B
  8
0
  6
CONTINUOUS
 62
     4
 10
-101.5018141990061
 20
152.968069924271
 30
0.0
 11
-101.5018141990061
 21
152.6227635277866
 31
0.0
  0
LINE
  5
47C
  8
0
  6
CONTINUOUS
 62
     4
 10
-101.5018141990061
 20
151.468069924271
 30
0.0
 11
-101.5018141990061
 21
151.1227635277866
 31
0.0
  0
LINE
  5
47D
  8
0
  6
CONTINUOUS
 62
     4
 10
-101.5018141990061
 20
149.968069924271
 30
0.0
 11
-101.5018141990061
 21
149.6227635277866
 31
0.0
  0
LINE
  5
47E
  8
0
  6
CONTINUOUS
 62
     4
 10
-101.5018141990061
 20
148.468069924271
 30
0.0
 11
-101.5018141990061
 21
147.5454167260288
 31
0.0
  0
LINE
  5
47F
  8
0
  6
CONTINUOUS
 62
     4
 10
-88.50182434857794
 20
132.4153881103785
 30
0.0
 11
-86.54448956602204
 21
133.5454557491294
 31
0.0
  0
LINE
  5
480
  8
0
  6
CONTINUOUS
 62
     4
 10
-88.50182997641861
 20
102.2153566970724
 30
0.0
 11
-86.19808018317309
 21
103.5454271133995
 31
0.0
  0
LINE
  5
481
  8
0
  6
CONTINUOUS
 62
     4
 10
-80.05851234734183
 20
103.5454292796689
 30
0.0
 11
-78.50181786176
 21
102.6466713986687
 31
0.0
  0
LINE
  5
482
  8
0
  6
CONTINUOUS
 62
     4
 10
-80.20493383053082
 20
133.5454240881249
 30
0.0
 11
-78.50182929628255
 21
132.5621363354541
 31
0.0
  0
LINE
  5
483
  8
0
  6
CONTINUOUS
 62
     4
 10
-83.20492978712497
 20
133.5454303795274
 30
0.0
 11
-78.50182329580053
 21
130.8300908807297
 31
0.0
  0
LINE
  5
484
  8
0
  6
CONTINUOUS
 62
     4
 10
-86.20493998036301
 20
133.5454272711274
 30
0.0
 11
-78.50182492471259
 21
129.0980322115057
 31
0.0
  0
LINE
  5
485
  8
0
  6
CONTINUOUS
 62
     4
 10
-88.50183866231743
 20
133.1395002065985
 30
0.0
 11
-78.50182553148039
 21
127.3659905714784
 31
0.0
  0
LINE
  5
486
  8
0
  6
CONTINUOUS
 62
     4
 10
-88.50183647653245
 20
131.4074481446243
 30
0.0
 11
-80.08056622391229
 21
126.5454260345211
 31
0.0
  0
LINE
  5
487
  8
0
  6
CONTINUOUS
 62
     4
 10
-88.50183429074747
 20
129.6753960826501
 30
0.0
 11
-83.08056599520347
 21
126.5454257186738
 31
0.0
  0
LINE
  5
488
  8
0
  6
CONTINUOUS
 62
     4
 10
-88.50181889046286
 20
127.9433363912819
 30
0.0
 11
-86.08056576649466
 21
126.5454254028265
 31
0.0
  0
LINE
  5
489
  8
0
  6
CONTINUOUS
 62
     4
 10
-83.05851402598154
 20
103.5454256601967
 30
0.0
 11
-78.50182419057336
 21
100.9146198477667
 31
0.0
  0
LINE
  5
48A
  8
0
  6
CONTINUOUS
 62
     4
 10
-86.05851379727272
 20
103.5454253443494
 30
0.0
 11
-78.50182200478838
 21
99.18256778579249
 31
0.0
  0
LINE
  5
48B
  8
0
  6
CONTINUOUS
 62
     4
 10
-88.50182634259062
 20
103.2240215442413
 30
0.0
 11
-78.5018198190034
 21
97.45051572381831
 31
0.0
  0
LINE
  5
48C
  8
0
  6
CONTINUOUS
 62
     4
 10
-88.50182415680564
 20
101.4919694822671
 30
0.0
 11
-79.93415707001867
 21
96.54542512988738
 31
0.0
  0
LINE
  5
48D
  8
0
  6
CONTINUOUS
 62
     4
 10
-88.50182197102066
 20
99.75991742029297
 30
0.0
 11
-82.93415684130986
 21
96.5454248140401
 31
0.0
  0
LINE
  5
48E
  8
0
  6
CONTINUOUS
 62
     4
 10
-88.5018263924855
 20
98.02786917301583
 30
0.0
 11
-85.93415661260104
 21
96.54542449819283
 31
0.0
  0
LINE
  5
48F
  8
0
  6
CONTINUOUS
 62
     4
 10
-88.50183102146326
 20
100.4833141033708
 30
0.0
 11
-83.19808340067272
 21
103.5454338816392
 31
0.0
  0
LINE
  5
490
  8
0
  6
CONTINUOUS
 62
     4
 10
-88.50182774073875
 20
98.75125638782109
 30
0.0
 11
-80.19808146649694
 21
103.5454260048678
 31
0.0
  0
LINE
  5
491
  8
0
  6
CONTINUOUS
 62
     4
 10
-88.50183208940831
 20
97.01921188677099
 30
0.0
 11
-78.50182969535223
 21
102.7927153230083
 31
0.0
  0
LINE
  5
492
  8
0
  6
CONTINUOUS
 62
     4
 10
-86.32243901965722
 20
96.54542531356864
 30
0.0
 11
-78.50182971825262
 21
101.0606557001101
 31
0.0
  0
LINE
  5
493
  8
0
  6
CONTINUOUS
 62
     4
 10
-83.32243759655358
 20
96.54542595139563
 30
0.0
 11
-78.50182860041269
 21
99.32860554548444
 31
0.0
  0
LINE
  5
494
  8
0
  6
CONTINUOUS
 62
     4
 10
-80.3224378252624
 20
96.54542563554836
 30
0.0
 11
-78.50182748257276
 21
97.59655539085878
 31
0.0
  0
LINE
  5
495
  8
0
  6
CONTINUOUS
 62
     4
 10
-88.50181457919967
 20
130.6833077120566
 30
0.0
 11
-83.54447789118675
 21
133.545427067132
 31
0.0
  0
LINE
  5
496
  8
0
  6
CONTINUOUS
 62
     4
 10
-88.5018202648476
 20
128.9512712487677
 30
0.0
 11
-80.54448404585804
 21
133.5454409492609
 31
0.0
  0
LINE
  5
497
  8
0
  6
CONTINUOUS
 62
     4
 10
-88.50181914700767
 20
127.219221094142
 30
0.0
 11
-78.50181943714682
 21
132.9927229806587
 31
0.0
  0
LINE
  5
498
  8
0
  6
CONTINUOUS
 62
     4
 10
-86.66885130341649
 20
126.5454346551255
 30
0.0
 11
-78.50182740427539
 21
131.2606675808247
 31
0.0
  0
LINE
  5
499
  8
0
  6
CONTINUOUS
 62
     4
 10
-83.66885544494136
 20
126.5454496995449
 30
0.0
 11
-78.50183391582954
 21
129.5286306406986
 31
0.0
  0
LINE
  5
49A
  8
0
  6
CONTINUOUS
 62
     4
 10
-80.66884990254511
 20
126.5454350963145
 30
0.0
 11
-78.50182852383958
 21
127.7965653344225
 31
0.0
  0
LINE
  5
49B
  8
0
  6
CONTINUOUS
 62
     4
 10
-200.5018218284007
 20
-93.45458327397122
 30
0.0
 11
-200.5018218284007
 21
-105.9898768530728
 31
0.0
  0
LINE
  5
49C
  8
0
  6
CONTINUOUS
 62
     4
 10
-180.3235381369944
 20
66.54541672602878
 30
0.0
 11
-180.3235381369944
 21
53.92874039546237
 31
0.0
  0
LINE
  5
49D
  8
0
  6
CONTINUOUS
 62
     4
 10
-153.3235381369944
 20
66.54541672602878
 30
0.0
 11
-153.3235381369944
 21
53.64805115596042
 31
0.0
  0
LINE
  5
49E
  8
0
  6
CONTINUOUS
 62
     4
 10
-180.3235381369944
 20
8.325554741775843
 30
0.0
 11
-180.3235381369944
 21
-3.454583273971227
 31
0.0
  0
LINE
  5
49F
  8
0
  6
CONTINUOUS
 62
     4
 10
-153.3235381369944
 20
8.886933220779749
 30
0.0
 11
-153.3235381369944
 21
-3.454583273971227
 31
0.0
  0
LINE
  5
4A0
  8
0
  6
CONTINUOUS
 62
     4
 10
-134.3235381369944
 20
73.54541672602878
 30
0.0
 11
-124.3235381369944
 21
73.54541672602878
 31
0.0
  0
LINE
  5
4A1
  8
0
  6
CONTINUOUS
 62
     4
 10
-134.3235381369944
 20
68.54541672602876
 30
0.0
 11
-124.3235381369944
 21
68.54541672602876
 31
0.0
  0
CIRCLE
  5
4A2
  8
0
  6
CONTINUOUS
 62
     4
 10
123.2385017050752
 20
71.04541672602876
 30
0.0
 40
2.5
  0
CIRCLE
  5
4A3
  8
0
  6
CONTINUOUS
 62
     4
 10
157.4465820118148
 20
11.79546109958521
 30
0.0
 40
2.5
  0
CIRCLE
  5
4A4
  8
0
  6
CONTINUOUS
 62
     4
 10
89.03057511284419
 20
11.79537235247232
 30
0.0
 40
2.499999999999999
  0
LINE
  5
4A5
  8
0
  6
CONTINUOUS
 62
     4
 10
101.7385453138502
 20
92.04543198481784
 30
0.0
 11
112.2385453138502
 21
92.04543198481784
 31
0.0
  0
LINE
  5
4A6
  8
0
  6
CONTINUOUS
 62
     4
 10
134.2385529432448
 20
92.04543198481784
 30
0.0
 11
144.7385529432448
 21
92.04543198481784
 31
0.0
  0
LINE
  5
4A7
  8
0
  6
CONTINUOUS
 62
     4
 10
101.7385453138502
 20
155.0454319848178
 30
0.0
 11
112.2385453138502
 21
155.0454319848178
 31
0.0
  0
LINE
  5
4A8
  8
0
  6
CONTINUOUS
 62
     4
 10
134.2385529432448
 20
155.0454319848178
 30
0.0
 11
144.7385529432448
 21
155.0454319848178
 31
0.0
  0
LINE
  5
4A9
  8
0
  6
CONTINUOUS
 62
     4
 10
134.2385529432448
 20
93.54543198481784
 30
0.0
 11
144.7385529432448
 21
93.54543198481784
 31
0.0
  0
LINE
  5
4AA
  8
0
  6
CONTINUOUS
 62
     4
 10
134.2385529432448
 20
95.04543198481784
 30
0.0
 11
144.7385529432448
 21
95.04543198481784
 31
0.0
  0
LINE
  5
4AB
  8
0
  6
CONTINUOUS
 62
     4
 10
134.2385529432448
 20
96.54543198481784
 30
0.0
 11
144.7385529432448
 21
96.54543198481784
 31
0.0
  0
LINE
  5
4AC
  8
0
  6
CONTINUOUS
 62
     4
 10
134.2385529432448
 20
98.04543198481784
 30
0.0
 11
144.7385529432448
 21
98.04543198481784
 31
0.0
  0
LINE
  5
4AD
  8
0
  6
CONTINUOUS
 62
     4
 10
134.2385529432448
 20
99.54543198481784
 30
0.0
 11
144.7385529432448
 21
99.54543198481784
 31
0.0
  0
LINE
  5
4AE
  8
0
  6
CONTINUOUS
 62
     4
 10
101.7385453138502
 20
93.54543198481784
 30
0.0
 11
112.2385453138502
 21
93.54543198481784
 31
0.0
  0
LINE
  5
4AF
  8
0
  6
CONTINUOUS
 62
     4
 10
101.7385453138502
 20
95.04543198481784
 30
0.0
 11
112.2385453138502
 21
95.04543198481784
 31
0.0
  0
LINE
  5
4B0
  8
0
  6
CONTINUOUS
 62
     4
 10
101.7385453138502
 20
96.54543198481784
 30
0.0
 11
112.2385453138502
 21
96.54543198481784
 31
0.0
  0
LINE
  5
4B1
  8
0
  6
CONTINUOUS
 62
     4
 10
101.7385453138502
 20
98.04543198481784
 30
0.0
 11
112.2385453138502
 21
98.04543198481784
 31
0.0
  0
LINE
  5
4B2
  8
0
  6
CONTINUOUS
 62
     4
 10
101.7385453138502
 20
99.54543198481784
 30
0.0
 11
112.2385453138502
 21
99.54543198481784
 31
0.0
  0
LINE
  5
4B3
  8
0
  6
CONTINUOUS
 62
     4
 10
101.7385453138502
 20
153.5454319848178
 30
0.0
 11
112.2385453138502
 21
153.5454319848178
 31
0.0
  0
LINE
  5
4B4
  8
0
  6
CONTINUOUS
 62
     4
 10
101.7385453138502
 20
152.0454319848178
 30
0.0
 11
112.2385453138502
 21
152.0454319848178
 31
0.0
  0
LINE
  5
4B5
  8
0
  6
CONTINUOUS
 62
     4
 10
101.7385453138502
 20
150.5454319848178
 30
0.0
 11
112.2385453138502
 21
150.5454319848178
 31
0.0
  0
LINE
  5
4B6
  8
0
  6
CONTINUOUS
 62
     4
 10
101.7385453138502
 20
149.0454319848178
 30
0.0
 11
112.2385453138502
 21
149.0454319848178
 31
0.0
  0
LINE
  5
4B7
  8
0
  6
CONTINUOUS
 62
     4
 10
101.7385453138502
 20
147.5454319848178
 30
0.0
 11
112.2385453138502
 21
147.5454319848178
 31
0.0
  0
LINE
  5
4B8
  8
0
  6
CONTINUOUS
 62
     4
 10
134.2385529432448
 20
153.5454319848178
 30
0.0
 11
144.7385529432448
 21
153.5454319848178
 31
0.0
  0
LINE
  5
4B9
  8
0
  6
CONTINUOUS
 62
     4
 10
134.2385529432448
 20
152.0454319848178
 30
0.0
 11
144.7385529432448
 21
152.0454319848178
 31
0.0
  0
LINE
  5
4BA
  8
0
  6
CONTINUOUS
 62
     4
 10
134.2385529432448
 20
150.5454319848178
 30
0.0
 11
144.7385529432448
 21
150.5454319848178
 31
0.0
  0
LINE
  5
4BB
  8
0
  6
CONTINUOUS
 62
     4
 10
134.2385529432448
 20
149.0454319848178
 30
0.0
 11
144.7385529432448
 21
149.0454319848178
 31
0.0
  0
LINE
  5
4BC
  8
0
  6
CONTINUOUS
 62
     4
 10
134.2385529432448
 20
147.5454319848178
 30
0.0
 11
144.7385529432448
 21
147.5454319848178
 31
0.0
  0
LINE
  5
4BD
  8
0
  6
CONTINUOUS
 62
     4
 10
134.2385529432448
 20
146.0454319848178
 30
0.0
 11
144.7385529432448
 21
146.0454319848178
 31
0.0
  0
LINE
  5
4BE
  8
0
  6
CONTINUOUS
 62
     4
 10
101.7385453138502
 20
146.0454319848178
 30
0.0
 11
112.2385453138502
 21
146.0454319848178
 31
0.0
  0
CIRCLE
  5
4BF
  8
0
  6
CONTINUOUS
 62
     4
 10
123.2385529432448
 20
31.54541672602877
 30
0.0
 40
44.20000076293945
  0
ARC
  5
4C0
  8
0
  6
CONTINUOUS
 62
     4
 10
123.2385529432448
 20
31.54541672602877
 30
0.0
 40
58.0
 50
114.4433575815537
 51
128.4606816076041
  0
ARC
  5
4C1
  8
0
  6
CONTINUOUS
 62
     4
 10
123.2385529432448
 20
31.54541672602877
 30
0.0
 40
58.0
 50
293.9019303072797
 51
308.7653849979004
  0
ARC
  5
4C2
  8
0
  6
CONTINUOUS
 62
     4
 10
123.2385529432448
 20
31.54541672602877
 30
0.0
 40
64.0
 50
112.0243299737778
 51
125.4005792745199
  0
ARC
  5
4C3
  8
0
  6
CONTINUOUS
 62
     4
 10
123.2385529432448
 20
31.54541672602877
 30
0.0
 40
70.0
 50
110.0510610018044
 51
125.9591521448436
  0
ARC
  5
4C4
  8
0
  6
CONTINUOUS
 62
     4
 10
123.2385529432448
 20
31.54541672602877
 30
0.0
 40
76.0
 50
108.4084961290648
 51
130.1473831627604
  0
ARC
  5
4C5
  8
0
  6
CONTINUOUS
 62
     4
 10
123.2385529432448
 20
31.54541672602877
 30
0.0
 40
82.0
 50
107.0186687461831
 51
253.3463329205968
  0
ARC
  5
4C6
  8
0
  6
CONTINUOUS
 62
     4
 10
123.2385529432448
 20
31.54541672602877
 30
0.0
 40
64.0
 50
291.5422707037695
 51
305.6310589991057
  0
ARC
  5
4C7
  8
0
  6
CONTINUOUS
 62
     4
 10
123.2385529432448
 20
31.54541672602877
 30
0.0
 40
70.0
 50
289.6159797729075
 51
306.1975070775424
  0
ARC
  5
4C8
  8
0
  6
CONTINUOUS
 62
     4
 10
123.2385529432448
 20
31.54541672602877
 30
0.0
 40
76.0
 50
288.0116571293307
 51
310.30236880645
  0
CIRCLE
  5
4C9
  8
0
  6
CONTINUOUS
 62
     4
 10
71.27701272107679
 20
61.54541672602878
 30
0.0
 40
4.0
  0
CIRCLE
  5
4CA
  8
0
  6
CONTINUOUS
 62
     4
 10
175.2000702772291
 20
61.54541672602878
 30
0.0
 40
4.0
  0
ARC
  5
4CB
  8
0
  6
CONTINUOUS
 62
     4
 10
123.2385529432448
 20
31.54541672602877
 30
0.0
 40
94.0
 50
104.477544676804
 51
255.5224585109195
  0
ARC
  5
4CC
  8
0
  6
CONTINUOUS
 62
     4
 10
123.2385529432448
 20
31.54541672602877
 30
0.0
 40
88.0
 50
105.4885629381276
 51
254.5114265892175
  0
ARC
  5
4CD
  8
0
  6
CONTINUOUS
 62
     4
 10
123.2385529432448
 20
31.54541672602877
 30
0.0
 40
70.0
 50
233.802474253123
 51
250.3839878973795
  0
ARC
  5
4CE
  8
0
  6
CONTINUOUS
 62
     4
 10
123.2385529432448
 20
31.54541672602877
 30
0.0
 40
64.0
 50
234.3689291617488
 51
248.4577106268959
  0
ARC
  5
4CF
  8
0
  6
CONTINUOUS
 62
     4
 10
123.2385529432448
 20
31.54541672602877
 30
0.0
 40
58.0
 50
231.234596332765
 51
246.0980441931965
  0
ARC
  5
4D0
  8
0
  6
CONTINUOUS
 62
     4
 10
123.2385529432448
 20
31.54541672602877
 30
0.0
 40
58.0
 50
154.8578327873293
 51
205.5479997503089
  0
ARC
  5
4D1
  8
0
  6
CONTINUOUS
 62
     4
 10
123.2385529432448
 20
31.54541672602877
 30
0.0
 40
58.0
 50
141.8436996258137
 51
145.1255098993564
  0
ARC
  5
4D2
  8
0
  6
CONTINUOUS
 62
     4
 10
123.2385529432448
 20
31.54541672602877
 30
0.0
 40
64.0
 50
144.2776238761694
 51
147.0689582654135
  0
ARC
  5
4D3
  8
0
  6
CONTINUOUS
 62
     4
 10
123.2385529432448
 20
31.54541672602877
 30
0.0
 40
70.0
 50
144.332565917853
 51
216.1974667796526
  0
ARC
  5
4D4
  8
0
  6
CONTINUOUS
 62
     4
 10
123.2385529432448
 20
31.54541672602877
 30
0.0
 40
76.0
 50
140.0656374603193
 51
220.3023285085603
  0
ARC
  5
4D5
  8
0
  6
CONTINUOUS
 62
     4
 10
123.2385529432448
 20
31.54541672602877
 30
0.0
 40
76.0
 50
229.6976125242152
 51
251.9883173711455
  0
ARC
  5
4D6
  8
0
  6
CONTINUOUS
 62
     4
 10
123.2385529432448
 20
31.54541672602877
 30
0.0
 40
58.0
 50
51.74085496300265
 51
65.55666108778097
  0
ARC
  5
4D7
  8
0
  6
CONTINUOUS
 62
     4
 10
123.2385529432448
 20
31.54541672602877
 30
0.0
 40
64.0
 50
54.73300032893976
 51
67.97568869555687
  0
ARC
  5
4D8
  8
0
  6
CONTINUOUS
 62
     4
 10
123.2385529432448
 20
31.54541672602877
 30
0.0
 40
70.0
 50
54.08686784855112
 51
69.94895766753022
  0
ARC
  5
4D9
  8
0
  6
CONTINUOUS
 62
     4
 10
123.2385529432448
 20
31.54541672602877
 30
0.0
 40
76.0
 50
49.23041210337529
 51
71.59152254026992
  0
ARC
  5
4DA
  8
0
  6
CONTINUOUS
 62
     4
 10
123.2385529432448
 20
31.54541672602877
 30
0.0
 40
76.0
 50
319.6976321041664
 51
400.0835286348263
  0
ARC
  5
4DB
  8
0
  6
CONTINUOUS
 62
     4
 10
123.2385529432448
 20
31.54541672602877
 30
0.0
 40
82.0
 50
286.6536379374138
 51
433.3463620625863
  0
ARC
  5
4DC
  8
0
  6
CONTINUOUS
 62
     4
 10
123.2385529432448
 20
31.54541672602877
 30
0.0
 40
88.0
 50
285.4885306084146
 51
434.5114693915854
  0
ARC
  5
4DD
  8
0
  6
CONTINUOUS
 62
     4
 10
123.2385529432448
 20
31.54541672602877
 30
0.0
 40
94.0
 50
284.477512347091
 51
435.522487652909
  0
ARC
  5
4DE
  8
0
  6
CONTINUOUS
 62
     4
 10
123.2385529432448
 20
31.54541672602877
 30
0.0
 40
70.0
 50
323.8025040783578
 51
395.9651328860783
  0
ARC
  5
4DF
  8
0
  6
CONTINUOUS
 62
     4
 10
123.2385529432448
 20
31.54541672602877
 30
0.0
 40
64.0
 50
324.3689521567945
 51
327.2259075884895
  0
ARC
  5
4E0
  8
0
  6
CONTINUOUS
 62
     4
 10
123.2385529432448
 20
31.54541672602877
 30
0.0
 40
58.0
 50
321.2346261579998
 51
325.5480408830246
  0
ARC
  5
4E1
  8
0
  6
CONTINUOUS
 62
     4
 10
123.2385529432448
 20
31.54541672602877
 30
0.0
 40
58.0
 50
34.64191009288802
 51
38.4760299532855
  0
ARC
  5
4E2
  8
0
  6
CONTINUOUS
 62
     4
 10
123.2385529432448
 20
31.54541672602877
 30
0.0
 40
64.0
 50
32.55206345216089
 51
35.32537980237453
  0
ARC
  5
4E3
  8
0
  6
CONTINUOUS
 62
     4
 10
123.2385529432448
 20
31.54541672602877
 30
0.0
 40
64.0
 50
152.8399490196974
 51
207.2258767010575
  0
CIRCLE
  5
4E4
  8
0
  6
CONTINUOUS
 62
     4
 10
71.27701272107679
 20
1.545416726028773
 30
0.0
 40
4.0
  0
CIRCLE
  5
4E5
  8
0
  6
CONTINUOUS
 62
     4
 10
175.2000702772291
 20
1.545416726028773
 30
0.0
 40
4.0
  0
ARC
  5
4E6
  8
0
  6
CONTINUOUS
 62
     4
 10
123.2385529432448
 20
31.54541672602877
 30
0.0
 40
58.0
 50
214.4519472778299
 51
218.7653620028547
  0
ARC
  5
4E7
  8
0
  6
CONTINUOUS
 62
     4
 10
123.2385529432448
 20
31.54541672602877
 30
0.0
 40
58.0
 50
334.4519711077016
 51
385.1410981743801
  0
ARC
  5
4E8
  8
0
  6
CONTINUOUS
 62
     4
 10
123.2385529432448
 20
31.54541672602877
 30
0.0
 40
64.0
 50
332.7741026946894
 51
386.9510556157512
  0
ARC
  5
4E9
  8
0
  6
CONTINUOUS
 62
     4
 10
123.2385529432448
 20
31.54541672602877
 30
0.0
 40
64.0
 50
212.7740703270812
 51
215.6310291738708
  0
LINE
  5
4EA
  8
0
  6
DIVIDE
 62
     9
 10
-109.3235305075999
 20
79.54541672602878
 30
0.0
 11
-109.3235305075999
 21
51.54541672602878
 31
0.0
  0
LINE
  5
4EB
  8
0
  6
DIVIDE
 62
     9
 10
-213.5018218284007
 20
-29.12958632572904
 30
0.0
 11
-213.5018218284007
 21
-41.12958632572904
 31
0.0
  0
LINE
  5
4EC
  8
0
  6
DIVIDE
 62
     9
 10
-177.5018218284007
 20
-29.12958632572904
 30
0.0
 11
-177.5018218284007
 21
-41.12958632572904
 31
0.0
  0
LINE
  5
4ED
  8
0
  6
DIVIDE
 62
     9
 10
-213.5018218284007
 20
-29.12958632572904
 30
0.0
 11
-164.8354857688303
 21
-29.12958632572904
 31
0.0
  0
LINE
  5
4EE
  8
0
  6
DIVIDE
 62
     9
 10
-213.5018218284007
 20
-41.12958632572904
 30
0.0
 11
-165.6434844260569
 21
-41.12958632572904
 31
0.0
  0
LINE
  5
4EF
  8
0
  6
DIVIDE
 62
     9
 10
-213.5018218284007
 20
-29.9795771704556
 30
0.0
 11
-177.5018218284007
 21
-29.9795771704556
 31
0.0
  0
LINE
  5
4F0
  8
0
  6
DIVIDE
 62
     9
 10
-213.5018218284007
 20
-40.27959548100247
 30
0.0
 11
-177.5018218284007
 21
-40.27959548100247
 31
0.0
  0
LINE
  5
4F1
  8
LAYER0014
  6
CONTINUOUS
 62
     7
 10
-100.5018218284006
 20
11.59139145747409
 30
0.0
 11
-87.07920677713111
 21
11.59139145747409
 31
0.0
  0
LINE
  5
4F2
  8
LAYER0014
  6
CONTINUOUS
 62
     7
 10
-100.5018218284006
 20
175.8840245141147
 30
0.0
 11
-92.90981133035376
 21
175.8840245141147
 31
0.0
  0
INSERT
  5
4F3
  8
LAYER0014
  6
CONTINUOUS
  2
DC_GROUP_1
 10
0.0
 20
0.0
 30
0.0
  0
INSERT
  5
4F4
  8
LAYER0014
  6
CONTINUOUS
  2
DC_GROUP_4
 10
0.0
 20
0.0
 30
0.0
  0
INSERT
  5
4F5
  8
LAYER0014
  6
CONTINUOUS
  2
DC_GROUP_7
 10
0.0
 20
0.0
 30
0.0
  0
INSERT
  5
4F6
  8
LAYER0014
  6
CONTINUOUS
  2
DC_GROUP_10
 10
0.0
 20
0.0
 30
0.0
  0
INSERT
  5
4F7
  8
LAYER0014
  6
CONTINUOUS
  2
DC_GROUP_12
 10
0.0
 20
0.0
 30
0.0
  0
INSERT
  5
4F8
  8
LAYER0014
  6
CONTINUOUS
  2
DC_GROUP_14
 10
0.0
 20
0.0
 30
0.0
  0
INSERT
  5
4F9
  8
LAYER0014
  6
CONTINUOUS
  2
DC_GROUP_17
 10
0.0
 20
0.0
 30
0.0
  0
INSERT
  5
4FA
  8
LAYER0014
  6
CONTINUOUS
  2
DC_GROUP_20
 10
0.0
 20
0.0
 30
0.0
  0
INSERT
  5
4FB
  8
LAYER0014
  6
CONTINUOUS
  2
DC_GROUP_23
 10
0.0
 20
0.0
 30
0.0
  0
INSERT
  5
4FC
  8
LAYER0014
  6
CONTINUOUS
  2
DC_GROUP_25
 10
0.0
 20
0.0
 30
0.0
  0
INSERT
  5
4FD
  8
LAYER0014
  6
CONTINUOUS
  2
DC_GROUP_28
 10
0.0
 20
0.0
 30
0.0
  0
INSERT
  5
4FE
  8
LAYER0014
  6
CONTINUOUS
  2
DC_GROUP_31
 10
0.0
 20
0.0
 30
0.0
  0
INSERT
  5
4FF
  8
LAYER0014
  6
CONTINUOUS
  2
DC_GROUP_34
 10
0.0
 20
0.0
 30
0.0
  0
INSERT
  5
500
  8
LAYER0014
  6
CONTINUOUS
  2
DC_GROUP_37
 10
0.0
 20
0.0
 30
0.0
  0
INSERT
  5
501
  8
LAYER0014
  6
CONTINUOUS
  2
DC_GROUP_39
 10
0.0
 20
0.0
 30
0.0
  0
INSERT
  5
502
  8
LAYER0014
  6
CONTINUOUS
  2
DC_GROUP_42
 10
0.0
 20
0.0
 30
0.0
  0
INSERT
  5
503
  8
LAYER0014
  6
CONTINUOUS
  2
DC_GROUP_45
 10
0.0
 20
0.0
 30
0.0
  0
INSERT
  5
504
  8
LAYER0014
  6
CONTINUOUS
  2
DC_GROUP_48
 10
0.0
 20
0.0
 30
0.0
  0
INSERT
  5
505
  8
LAYER0014
  6
CONTINUOUS
  2
DC_GROUP_51
 10
0.0
 20
0.0
 30
0.0
  0
INSERT
  5
506
  8
LAYER0014
  6
CONTINUOUS
  2
DC_GROUP_54
 10
0.0
 20
0.0
 30
0.0
  0
INSERT
  5
507
  8
LAYER0014
  6
CONTINUOUS
  2
DC_GROUP_57
 10
0.0
 20
0.0
 30
0.0
  0
INSERT
  5
508
  8
LAYER0014
  6
CONTINUOUS
  2
DC_GROUP_60
 10
0.0
 20
0.0
 30
0.0
  0
INSERT
  5
509
  8
LAYER0014
  6
CONTINUOUS
  2
DC_GROUP_63
 10
0.0
 20
0.0
 30
0.0
  0
INSERT
  5
50A
  8
LAYER0014
  6
CONTINUOUS
  2
DC_GROUP_64
 10
0.0
 20
0.0
 30
0.0
  0
INSERT
  5
50B
  8
LAYER0014
  6
CONTINUOUS
  2
DC_GROUP_67
 10
0.0
 20
0.0
 30
0.0
  0
INSERT
  5
50C
  8
LAYER0014
  6
CONTINUOUS
  2
DC_GROUP_70
 10
0.0
 20
0.0
 30
0.0
  0
INSERT
  5
50D
  8
LAYER0014
  6
CONTINUOUS
  2
DC_GROUP_72
 10
0.0
 20
0.0
 30
0.0
  0
INSERT
  5
50E
  8
LAYER0014
  6
CONTINUOUS
  2
DC_GROUP_75
 10
0.0
 20
0.0
 30
0.0
  0
INSERT
  5
50F
  8
LAYER0014
  6
CONTINUOUS
  2
DC_GROUP_78
 10
0.0
 20
0.0
 30
0.0
  0
INSERT
  5
510
  8
LAYER0014
  6
CONTINUOUS
  2
DC_GROUP_80
 10
0.0
 20
0.0
 30
0.0
  0
INSERT
  5
511
  8
0
  6
CONTINUOUS
  2
DC_GROUP_83
 10
0.0
 20
0.0
 30
0.0
  0
INSERT
  5
512
  8
0
  6
CONTINUOUS
  2
DC_GROUP_86
 10
0.0
 20
0.0
 30
0.0
  0
INSERT
  5
513
  8
0
  6
CONTINUOUS
  2
DC_GROUP_89
 10
0.0
 20
0.0
 30
0.0
  0
INSERT
  5
514
  8
0
  6
CONTINUOUS
  2
DC_GROUP_92
 10
0.0
 20
0.0
 30
0.0
  0
INSERT
  5
515
  8
0
  6
CONTINUOUS
  2
DC_GROUP_94
 10
0.0
 20
0.0
 30
0.0
  0
INSERT
  5
516
  8
0
  6
CONTINUOUS
  2
DC_GROUP_97
 10
0.0
 20
0.0
 30
0.0
  0
INSERT
  5
517
  8
0
  6
CONTINUOUS
  2
DC_GROUP_100
 10
0.0
 20
0.0
 30
0.0
  0
LINE
  5
518
  8
0
  6
CONTINUOUS
 62
     6
 10
-91.63794076506241
 20
-139.4943001830095
 30
0.0
 11
80.01988394196883
 21
-139.4943001830095
 31
0.0
  0
LINE
  5
519
  8
0
  6
CONTINUOUS
 62
     6
 10
-91.63794076506241
 20
-171.4277474486346
 30
0.0
 11
80.01988394196883
 21
-171.4277474486346
 31
0.0
  0
LINE
  5
51A
  8
0
  6
CONTINUOUS
 62
     6
 10
-91.63794076506241
 20
-179.4111092650408
 30
0.0
 11
80.01988394196883
 21
-179.4111092650408
 31
0.0
  0
LINE
  5
51B
  8
0
  6
CONTINUOUS
 62
     6
 10
-91.63794076506241
 20
-163.4443856322283
 30
0.0
 11
80.01988394196883
 21
-163.4443856322283
 31
0.0
  0
LINE
  5
51C
  8
0
  6
CONTINUOUS
 62
     6
 10
-91.63794076506241
 20
-155.4610238158221
 30
0.0
 11
80.01988394196883
 21
-155.4610238158221
 31
0.0
  0
LINE
  5
51D
  8
0
  6
CONTINUOUS
 62
     6
 10
-91.63794076506241
 20
-147.4776619994158
 30
0.0
 11
80.01988394196883
 21
-147.4776619994158
 31
0.0
  0
LINE
  5
51E
  8
0
  6
CONTINUOUS
 62
     6
 10
-91.63794076506241
 20
-131.5109566771501
 30
0.0
 11
80.01988394196883
 21
-131.5109566771501
 31
0.0
  0
LINE
  5
51F
  8
0
  6
CONTINUOUS
 62
     6
 10
-91.63794076506241
 20
-123.5275948607439
 30
0.0
 11
80.01988394196883
 21
-123.5275948607439
 31
0.0
  0
LINE
  5
520
  8
0
  6
CONTINUOUS
 62
     6
 10
-91.63794076506241
 20
-115.5442330443376
 30
0.0
 11
-66.84266793791397
 21
-115.5442330443376
 31
0.0
  0
LINE
  5
521
  8
0
  6
CONTINUOUS
 62
     2
 10
118.1723055455664
 20
137.4704159192635
 30
0.0
 11
123.2385624907625
 21
140.3954137407083
 31
0.0
  0
LINE
  5
522
  8
0
  6
CONTINUOUS
 62
     2
 10
123.2385795492708
 20
140.3954082355041
 30
0.0
 11
128.3048225647847
 21
137.4704016760149
 31
0.0
  0
LINE
  5
523
  8
0
  6
CONTINUOUS
 62
     2
 10
128.3048066053541
 20
137.4704045189975
 30
0.0
 11
128.3048066053541
 21
131.620413674271
 31
0.0
  0
LINE
  5
524
  8
0
  6
CONTINUOUS
 62
     2
 10
128.3048032790139
 20
131.6204063231518
 30
0.0
 11
123.2385463338178
 21
128.695408501707
 31
0.0
  0
LINE
  5
525
  8
0
  6
CONTINUOUS
 62
     2
 10
123.238541137014
 20
128.69540639311
 30
0.0
 11
118.1722963780647
 21
131.6204098144155
 31
0.0
  0
LINE
  5
526
  8
0
  6
CONTINUOUS
 62
     2
 10
118.1723069105299
 20
131.62042893306
 30
0.0
 11
118.1723069105299
 21
137.4704197777866
 31
0.0
  0
LINE
  5
527
  8
0
  6
CONTINUOUS
 62
     2
 10
118.1723039775917
 20
107.4704257814657
 30
0.0
 11
123.2385609227878
 21
110.3954236029105
 31
0.0
  0
LINE
  5
528
  8
0
  6
CONTINUOUS
 62
     2
 10
123.2385629601923
 20
110.3954321384703
 30
0.0
 11
128.3048059757062
 21
107.470425578981
 31
0.0
  0
LINE
  5
529
  8
0
  6
CONTINUOUS
 62
     2
 10
128.3048066053541
 20
107.4704121483921
 30
0.0
 11
128.3048066053541
 21
101.620413674271
 31
0.0
  0
LINE
  5
52A
  8
0
  6
CONTINUOUS
 62
     2
 10
128.3048026647119
 20
101.6204145335406
 30
0.0
 11
123.2385457195158
 21
98.69541671209586
 31
0.0
  0
LINE
  5
52B
  8
0
  6
CONTINUOUS
 62
     2
 10
123.2385485405228
 20
98.69540975595115
 30
0.0
 11
118.1723004779504
 21
101.620415084608
 31
0.0
  0
LINE
  5
52C
  8
0
  6
CONTINUOUS
 62
     2
 10
118.1723069105299
 20
101.6204213036655
 30
0.0
 11
118.1723069105299
 21
107.4704197777866
 31
0.0
  0
LINE
  5
52D
  8
0
  6
CONTINUOUS
 62
     2
 10
118.1723061159412
 20
-38.52958078161859
 30
0.0
 11
123.2385630611373
 21
-35.60458296017382
 31
0.0
  0
LINE
  5
52E
  8
0
  6
CONTINUOUS
 62
     2
 10
123.2385514935159
 20
-35.60459401098896
 30
0.0
 11
128.3047879017859
 21
-38.52959675577139
 31
0.0
  0
LINE
  5
52F
  8
0
  6
CONTINUOUS
 62
     2
 10
128.3048066053541
 20
-38.52959166630521
 30
0.0
 11
128.3048066053541
 21
-44.3795901404263
 31
0.0
  0
LINE
  5
530
  8
0
  6
CONTINUOUS
 62
     2
 10
128.3048038493887
 20
-44.3795903777303
 30
0.0
 11
123.2385469041927
 21
-47.30458819917507
 31
0.0
  0
LINE
  5
531
  8
0
  6
CONTINUOUS
 62
     2
 10
123.2385444406371
 20
-47.30458947148858
 30
0.0
 11
118.1722930744416
 21
-44.37958223548034
 31
0.0
  0
LINE
  5
532
  8
0
  6
CONTINUOUS
 62
     2
 10
118.1723069105299
 20
-44.37957869633451
 30
0.0
 11
118.1723069105299
 21
-38.52958022221341
 31
0.0
  0
LINE
  5
533
  8
0
  6
CONTINUOUS
 62
     2
 10
118.1722969870405
 20
-68.52957308229347
 30
0.0
 11
123.2385539322366
 21
-65.60457526084869
 31
0.0
  0
LINE
  5
534
  8
0
  6
CONTINUOUS
 62
     2
 10
123.2385490383553
 20
-65.60458377431726
 30
0.0
 11
128.3047986611132
 21
-68.52959414851333
 31
0.0
  0
LINE
  5
535
  8
0
  6
CONTINUOUS
 62
     2
 10
128.3048066053541
 20
-68.52958785160794
 30
0.0
 11
128.3048066053541
 21
-74.37958632572904
 31
0.0
  0
LINE
  5
536
  8
0
  6
CONTINUOUS
 62
     2
 10
128.3048051424319
 20
-74.37958547096818
 30
0.0
 11
123.2385481972358
 21
-77.30458329241296
 31
0.0
  0
LINE
  5
537
  8
0
  6
CONTINUOUS
 62
     2
 10
123.2385289572032
 20
-77.30457234423497
 30
0.0
 11
118.1722775910077
 21
-74.37956510822673
 31
0.0
  0
LINE
  5
538
  8
0
  6
CONTINUOUS
 62
     2
 10
118.1723069105299
 20
-74.37957869633451
 30
0.0
 11
118.1723069105299
 21
-68.52958022221341
 31
0.0
  0
LINE
  5
539
  8
0
  6
CONTINUOUS
 62
     2
 10
71.02594892559004
 20
-12.67592766414427
 30
0.0
 11
76.09220917441284
 21
-9.750927935354273
 31
0.0
  0
LINE
  5
53A
  8
0
  6
CONTINUOUS
 62
     2
 10
76.09221027541302
 20
-9.750930431518189
 30
0.0
 11
81.15845329092694
 21
-12.67593699100744
 31
0.0
  0
LINE
  5
53B
  8
0
  6
CONTINUOUS
 62
     2
 10
81.15845193006116
 20
-12.67593299015775
 30
0.0
 11
81.15845193006116
 21
-18.52593146427885
 31
0.0
  0
LINE
  5
53C
  8
0
  6
CONTINUOUS
 62
     2
 10
81.15845275522729
 20
-18.52592493096686
 30
0.0
 11
76.09219911365794
 21
-21.45092084506641
 31
0.0
  0
LINE
  5
53D
  8
0
  6
CONTINUOUS
 62
     2
 10
76.09219744179363
 20
-21.45092318654847
 30
0.0
 11
71.02594607559813
 21
-18.52591595054023
 31
0.0
  0
LINE
  5
53E
  8
0
  6
CONTINUOUS
 62
     2
 10
71.02594460584241
 20
-18.52592192753568
 30
0.0
 11
71.02594460584241
 21
-12.67592345341459
 31
0.0
  0
CIRCLE
  5
53F
  8
0
  6
CONTINUOUS
 62
     2
 10
123.2385529432448
 20
134.5454319848178
 30
0.0
 40
9.0
  0
CIRCLE
  5
540
  8
0
  6
CONTINUOUS
 62
     2
 10
123.2385529432448
 20
104.5454319848178
 30
0.0
 40
9.0
  0
CIRCLE
  5
541
  8
0
  6
CONTINUOUS
 62
     2
 10
123.2385529432448
 20
-41.45458327397122
 30
0.0
 40
9.0
  0
CIRCLE
  5
542
  8
0
  6
CONTINUOUS
 62
     2
 10
123.2385529432448
 20
-71.45458327397122
 30
0.0
 40
9.0
  0
CIRCLE
  5
543
  8
0
  6
CONTINUOUS
 62
     2
 10
76.09219826795179
 20
-15.60093031986967
 30
0.0
 40
9.0
  0
LINE
  5
544
  8
0
  6
CONTINUOUS
 62
     5
 10
217.7188996229323
 20
45.87453354731784
 30
0.0
 11
232.7188996229323
 21
45.87453354731784
 31
0.0
  0
LINE
  5
545
  8
0
  6
CONTINUOUS
 62
     5
 10
232.7188996229323
 20
45.87451828852878
 30
0.0
 11
232.7188996229323
 21
53.37451828852878
 31
0.0
  0
LINE
  5
546
  8
0
  6
CONTINUOUS
 62
     5
 10
222.2592438612135
 20
56.47478379145846
 30
0.0
 11
225.2188691053541
 21
56.47478379145846
 31
0.0
  0
LINE
  5
547
  8
0
  6
CONTINUOUS
 62
     5
 10
225.2188989925415
 20
56.4748084002496
 30
0.0
 11
224.4688928647736
 21
57.22481465445904
 31
0.0
  0
LINE
  5
548
  8
0
  6
CONTINUOUS
 62
     5
 10
217.7188996229323
 20
45.87451828852878
 30
0.0
 11
217.7188996229323
 21
57.12452591792331
 31
0.0
  0
LINE
  5
549
  8
0
  6
CONTINUOUS
 62
     5
 10
217.7188996229323
 20
57.12453354731784
 30
0.0
 11
219.9688996229323
 21
57.12453354731784
 31
0.0
  0
LINE
  5
54A
  8
0
  6
CONTINUOUS
 62
     5
 10
219.9688996229323
 20
55.99951828852878
 30
0.0
 11
219.9688996229323
 21
57.12451828852878
 31
0.0
  0
LINE
  5
54B
  8
0
  6
CONTINUOUS
 62
     5
 10
219.9688691053541
 20
55.99953354731784
 30
0.0
 11
221.4688691053541
 21
55.99953354731784
 31
0.0
  0
LINE
  5
54C
  8
0
  6
CONTINUOUS
 62
     5
 10
221.4688996229323
 20
54.87451828852878
 30
0.0
 11
221.4688996229323
 21
55.99951828852878
 31
0.0
  0
LINE
  5
54D
  8
0
  6
CONTINUOUS
 62
     5
 10
221.4688691053541
 20
54.87453354731784
 30
0.0
 11
222.9688996229323
 21
54.87453354731784
 31
0.0
  0
LINE
  5
54E
  8
0
  6
CONTINUOUS
 62
     5
 10
222.9688996229323
 20
53.37451828852878
 30
0.0
 11
222.9688996229323
 21
54.87451828852878
 31
0.0
  0
LINE
  5
54F
  8
0
  6
CONTINUOUS
 62
     5
 10
224.4689097806229
 20
55.72477857549089
 30
0.0
 11
225.2189159716116
 21
56.47478476647953
 31
0.0
  0
LINE
  5
550
  8
0
  6
CONTINUOUS
 62
     5
 10
217.7188996229323
 20
53.37453354731784
 30
0.0
 11
232.7188996229323
 21
53.37453354731784
 31
0.0
  0
LINE
  5
551
  8
0
  6
CONTINUOUS
 62
     5
 10
227.0947418972294
 20
51.40158559715295
 30
0.0
 11
226.9404104125529
 21
52.37599647184473
 31
0.0
  0
LINE
  5
552
  8
0
  6
CONTINUOUS
 62
     5
 10
227.0946605919194
 20
51.40158973279696
 30
0.0
 11
226.1202346462992
 21
51.24725599343012
 31
0.0
  0
LINE
  5
553
  8
0
  6
CONTINUOUS
 62
     5
 10
224.4689097806229
 20
44.37449354974629
 30
0.0
 11
225.2189159716116
 21
45.12449974073493
 31
0.0
  0
LINE
  5
554
  8
0
  6
CONTINUOUS
 62
     5
 10
225.9688717947754
 20
44.3745494890774
 30
0.0
 11
225.2188764565997
 21
45.12454495369289
 31
0.0
  0
LINE
  5
555
  8
0
  6
CONTINUOUS
 62
     5
 10
225.2188996229323
 20
45.12451828852878
 30
0.0
 11
225.2188996229323
 21
40.62451828852878
 31
0.0
  0
LINE
  5
556
  8
0
  6
CONTINUOUS
 62
     5
 10
225.2188760772786
 20
40.62455096613317
 30
0.0
 11
224.4688807391029
 21
41.37454643074867
 31
0.0
  0
LINE
  5
557
  8
0
  6
CONTINUOUS
 62
     5
 10
225.2189591299837
 20
40.62448417398915
 30
0.0
 11
225.9689653209723
 21
41.37449036497779
 31
0.0
  0
ARC
  5
558
  8
0
  6
CONTINUOUS
 62
     5
 10
225.2385224256666
 20
49.54541672602878
 30
0.0
 40
2.625001907348633
 50
45.00010370507647
 51
339.9999320525513
  0
TEXT
  5
559
  8
0
 62
     5
 10
9.43854226209241
 20
24.31685794726596
 30
0.0
 40
3.0
  1
0001
 50
-90.00000000000001
 41
0.7647060767727455
  7
FDASTYLE1
 72
     5
 11
9.43854226209241
 21
15.14038502599301
 31
0.0
  0
TEXT
  5
55A
  8
0
 62
     5
 10
15.93854226209241
 20
24.67400111094699
 30
0.0
 40
4.0
  1
MO2-10
 50
-90.00000000000001
 41
0.7692310229032535
  7
FDASTYLE1
 72
     5
 11
15.93854226209241
 21
6.212456561268905
 31
0.0
  0
TEXT
  5
55B
  8
0
 62
     5
 10
15.43854226209241
 20
60.03114415541873
 30
0.0
 40
5.0
  1
NIKKO
 50
-90.00000000000001
 41
0.767442115904438
  7
FDASTYLE1
 72
     5
 11
15.43854226209241
 21
40.84509125780778
 31
0.0
  0
TEXT
  5
55C
  8
0
 62
     5
 10
229.0385407362135
 20
4.645403994476652
 30
0.0
 40
3.0
  1
F MAX  22KN
 50
90.0
 41
0.8450706536151047
  7
FDASTYLE1
 72
     5
 11
229.0385407362135
 21
32.53273556377511
 31
0.0
  0
TEXT
  5
55D
  8
0
 62
     5
 10
231.1080902967604
 20
49.52699901000247
 30
0.0
 40
3.0
  1
N min
 50
90.0
 41
0.7983872414958758
  7
FDASTYLE1
 72
     5
 11
231.1080902967604
 21
61.50280763244061
 31
0.0
  0
TEXT
  5
55E
  8
0
 62
     5
 10
228.9734747562559
 20
65.0519973768352
 30
0.0
 40
1.5
  1
-1
 50
90.0
 41
0.7826088684192882
  7
FDASTYLE1
 72
     5
 11
228.9734747562559
 21
67.39982398209307
 31
0.0
  0
TEXT
  5
55F
  8
0
 62
     5
 10
225.2914399061354
 20
58.02770091429935
 30
0.0
 40
3.0
  1
ΣS
 50
90.0
 41
0.8264462974117471
  7
FDASTYLE1
 72
     5
 11
225.2914399061354
 21
63.48224647721688
 31
0.0
  0
TEXT
  5
560
  8
0
 62
     5
 10
223.5890168104323
 20
41.70073379412875
 30
0.0
 40
3.0
  1
F
 50
90.0
 41
0.8791213035583496
  7
FDASTYLE1
 72
     5
 11
223.5890168104323
 21
44.3380977048038
 31
0.0
  0
TEXT
  5
561
  8
0
 62
     5
 10
239.0385407362135
 20
4.757617844498014
 30
0.0
 40
3.0
  1
N MAX 2500 A ΣS MAX
 50
90.0
 41
0.7791577235285175
  7
FDASTYLE1
 72
     5
 11
239.0385407362135
 21
49.63710271974063
 31
0.0
  0
TEXT
  5
562
  8
0
 62
     5
 10
234.0385407362135
 20
4.747858418381071
 30
0.0
 40
3.0
  1
ΣS MAX  44KN
 50
90.0
 41
0.7802878195686542
  7
FDASTYLE1
 72
     5
 11
234.0385407362135
 21
33.30639261459382
 31
0.0
  0
VIEWPORT
  5
48
 67
     1
  8
0
 10
-5.531429682113981
 20
0.0
 30
0.0
 40
1662.0
 41
1140.0
 68
     1
 69
     1
1001
ACAD
1000
MVIEW
1002
{
1070
    16
1010
0.0
1020
0.0
1030
0.0
1020
0.0
1030
0.0
1010
0.0
1020
0.0
1030
1.0
1020
0.0
1030
1.0
1040
0.0
1040
1140.0
1040
-5.531429682113981
1040
0.0
1040
50.0
1040
0.0
1040
0.0
1070
     0
1070
   100
1070
     0
1070
     1
1070
     0
1070
     0
1070
     0
1070
     0
1040
0.0
1040
0.0
1040
0.0
1040
0.5
1040
0.5
1040
0.0
1040
0.0
1070
     0
1002
{
1002
}
1002
}
  0
ENDSEC
  0
EOF
